  0
SECTION
  2
HEADER
  9
$ACADVER
  1
AC1014
  9
$HANDSEED
  5
FFFF
  9
$MEASUREMENT
 70
     1
  0
ENDSEC
  0
SECTION
  2
TABLES
  0
TABLE
  2
VPORT
  5
8
330
0
100
AcDbSymbolTable
 70
     4
  0
VPORT
  5
2E
330
8
100
AcDbSymbolTableRecord
100
AcDbViewportTableRecord
  2
*ACTIVE
 70
     0
 10
0.0
 20
0.0
 11
1.0
 21
1.0
 12
210.0
 22
148.5
 13
0.0
 23
0.0
 14
10.0
 24
10.0
 15
10.0
 25
10.0
 16
0.0
 26
0.0
 36
1.0
 17
0.0
 27
0.0
 37
0.0
 40
341.0
 41
1.24
 42
50.0
 43
0.0
 44
0.0
 50
0.0
 51
0.0
 71
     0
 72
   100
 73
     1
 74
     3
 75
     0
 76
     0
 77
     0
 78
     0
  0
ENDTAB
  0
TABLE
  2
LTYPE
  5
5
330
0
100
AcDbSymbolTable
 70
     1
  0
LTYPE
  5
14
330
5
100
AcDbSymbolTableRecord
100
AcDbLinetypeTableRecord
  2
BYBLOCK
 70
     0
  3

 72
    65
 73
     0
 40
0.0
  0
LTYPE
  5
15
330
5
100
AcDbSymbolTableRecord
100
AcDbLinetypeTableRecord
  2
BYLAYER
 70
     0
  3

 72
    65
 73
     0
 40
0.0
  0
LTYPE
  5
16
330
5
100
AcDbSymbolTableRecord
100
AcDbLinetypeTableRecord
  2
CONTINUOUS
 70
     0
  3
Solid line
 72
    65
 73
     0
 40
0.0
  0
ENDTAB
  0
TABLE
  2
LAYER
  5
2
100
AcDbSymbolTable
 70
2
  0
LAYER
  5
50
100
AcDbSymbolTableRecord
100
AcDbLayerTableRecord
  2
0
 70
0
  6
CONTINUOUS
  0
LAYER
  5
51
100
AcDbSymbolTableRecord
100
AcDbLayerTableRecord
  2
Layer_1
 70
0
  6
CONTINUOUS
  0
ENDTAB
  0
TABLE
  2
STYLE
  5
3
330
0
100
AcDbSymbolTable
 70
     1
  0
STYLE
  5
11
330
3
100
AcDbSymbolTableRecord
100
AcDbTextStyleTableRecord
  2
STANDARD
 70
     0
 40
0.0
 41
1.0
 50
0.0
 71
     0
 42
2.5
  3
txt
  4

  0
ENDTAB
  0
TABLE
  2
VIEW
  5
6
330
0
100
AcDbSymbolTable
 70
     0
  0
ENDTAB
  0
TABLE
  2
UCS
  5
7
330
0
100
AcDbSymbolTable
 70
     0
  0
ENDTAB
  0
TABLE
  2
APPID
  5
9
330
0
100
AcDbSymbolTable
 70
     2
  0
APPID
  5
12
330
9
100
AcDbSymbolTableRecord
100
AcDbRegAppTableRecord
  2
ACAD
 70
     0
  0
ENDTAB
  0
TABLE
  2
DIMSTYLE
  5
A
330
0
100
AcDbSymbolTable
 70
     1
  0
DIMSTYLE
105
27
330
A
100
AcDbSymbolTableRecord
100
AcDbDimStyleTableRecord
  2
ISO-25
 70
     0
  3

  4

  5

  6

  7

 40
1.0
 41
2.5
 42
0.625
 43
3.75
 44
1.25
 45
0.0
 46
0.0
 47
0.0
 48
0.0
140
2.5
141
2.5
142
0.0
143
0.03937007874016
144
1.0
145
0.0
146
1.0
147
0.625
 71
     0
 72
     0
 73
     0
 74
     0
 75
     0
 76
     0
 77
     1
 78
     8
170
     0
171
     3
172
     1
173
     0
174
     0
175
     0
176
     0
177
     0
178
     0
270
     2
271
     2
272
     2
273
     2
274
     3
340
11
275
     0
280
     0
281
     0
282
     0
283
     0
284
     8
285
     0
286
     0
287
     3
288
     0
  0
ENDTAB
  0
TABLE
  2
BLOCK_RECORD
  5
1
330
0
100
AcDbSymbolTable
 70
     1
  0
BLOCK_RECORD
  5
1F
330
1
100
AcDbSymbolTableRecord
100
AcDbBlockTableRecord
  2
*MODEL_SPACE
  0
BLOCK_RECORD
  5
1B
330
1
100
AcDbSymbolTableRecord
100
AcDbBlockTableRecord
  2
*PAPER_SPACE
  0
ENDTAB
  0
ENDSEC
  0
SECTION
  2
BLOCKS
  0
BLOCK
  5
20
330
1F
100
AcDbEntity
  8
0
100
AcDbBlockBegin
  2
*MODEL_SPACE
 70
     0
 10
0.0
 20
0.0
 30
0.0
  3
*MODEL_SPACE
  1

  0
ENDBLK
  5
21
330
1F
100
AcDbEntity
  8
0
100
AcDbBlockEnd
  0
BLOCK
  5
1C
330
1B
100
AcDbEntity
 67
     1
  8
0
100
AcDbBlockBegin
  2
*PAPER_SPACE
  1

  0
ENDBLK
  5
1D
330
1B
100
AcDbEntity
 67
     1
  8
0
100
AcDbBlockEnd
  0
ENDSEC
  0
SECTION
  2
ENTITIES
  0
SPLINE
  5
100
100
AcDbEntity
  8
Layer_1
 62
7
100
AcDbSpline
 70
8
 71
3
 72
8
 73
4
 74
0
 40
0
 40
0
 40
0
 40
0
 40
1
 40
1
 40
1
 40
1
 10
1174.855837
 20
2806.132129
 30
0.0
 10
1182.568745
 20
2819.098896
 30
0.0
 10
1214.571182
 20
2850.038118
 30
0.0
 10
1227.983073
 20
2857.494065
 30
0.0
  0
SPLINE
  5
101
100
AcDbEntity
  8
Layer_1
 62
7
100
AcDbSpline
 70
8
 71
3
 72
8
 73
4
 74
0
 40
0
 40
0
 40
0
 40
0
 40
1
 40
1
 40
1
 40
1
 10
1227.983073
 20
2857.494065
 30
0.0
 10
1235.056118
 20
2861.423440
 30
0.0
 10
1232.046526
 20
2865.761287
 30
0.0
 10
1200.972036
 20
2896.418745
 30
0.0
  0
SPLINE
  5
102
100
AcDbEntity
  8
Layer_1
 62
7
100
AcDbSpline
 70
8
 71
3
 72
8
 73
4
 74
0
 40
0
 40
0
 40
0
 40
0
 40
1
 40
1
 40
1
 40
1
 10
1200.972036
 20
2896.418745
 30
0.0
 10
1166.001109
 20
2930.920539
 30
0.0
 10
1166.001109
 20
2930.920539
 30
0.0
 10
1130.331642
 20
2897.021389
 30
0.0
  0
SPLINE
  5
103
100
AcDbEntity
  8
Layer_1
 62
7
100
AcDbSpline
 70
8
 71
3
 72
8
 73
4
 74
0
 40
0
 40
0
 40
0
 40
0
 40
1
 40
1
 40
1
 40
1
 10
1130.331642
 20
2897.021389
 30
0.0
 10
1094.662148
 20
2863.128192
 30
0.0
 10
1094.662148
 20
2863.128192
 30
0.0
 10
1109.180794
 20
2851.216477
 30
0.0
  0
SPLINE
  5
104
100
AcDbEntity
  8
Layer_1
 62
7
100
AcDbSpline
 70
8
 71
3
 72
8
 73
4
 74
0
 40
0
 40
0
 40
0
 40
0
 40
1
 40
1
 40
1
 40
1
 10
1109.180794
 20
2851.216477
 30
0.0
 10
1127.736276
 20
2835.989086
 30
0.0
 10
1160.727294
 20
2801.361717
 30
0.0
 10
1160.727294
 20
2797.111178
 30
0.0
  0
SPLINE
  5
105
100
AcDbEntity
  8
Layer_1
 62
7
100
AcDbSpline
 70
8
 71
3
 72
8
 73
4
 74
0
 40
0
 40
0
 40
0
 40
0
 40
1
 40
1
 40
1
 40
1
 10
1160.727294
 20
2797.111178
 30
0.0
 10
1160.727294
 20
2789.929339
 30
0.0
 10
1167.972798
 20
2794.562838
 30
0.0
 10
1174.855837
 20
2806.123625
 30
0.0
  0
SPLINE
  5
106
100
AcDbEntity
  8
Layer_1
 62
7
100
AcDbSpline
 70
8
 71
3
 72
8
 73
4
 74
0
 40
0
 40
0
 40
0
 40
0
 40
1
 40
1
 40
1
 40
1
 10
626.958133
 20
2593.005350
 30
0.0
 10
648.447012
 20
2596.737434
 30
0.0
 10
680.791902
 20
2605.333756
 30
0.0
 10
698.835506
 20
2612.104572
 30
0.0
  0
SPLINE
  5
107
100
AcDbEntity
  8
Layer_1
 62
7
100
AcDbSpline
 70
8
 71
3
 72
8
 73
4
 74
0
 40
0
 40
0
 40
0
 40
0
 40
1
 40
1
 40
1
 40
1
 10
698.835506
 20
2612.104572
 30
0.0
 10
716.879166
 20
2618.878506
 30
0.0
 10
750.558859
 20
2630.757056
 30
0.0
 10
773.679157
 20
2638.503838
 30
0.0
  0
SPLINE
  5
108
100
AcDbEntity
  8
Layer_1
 62
7
100
AcDbSpline
 70
8
 71
3
 72
8
 73
4
 74
0
 40
0
 40
0
 40
0
 40
0
 40
1
 40
1
 40
1
 40
1
 10
773.679157
 20
2638.503838
 30
0.0
 10
815.716297
 20
2652.590854
 30
0.0
 10
815.716297
 20
2652.590854
 30
0.0
 10
818.462466
 20
2670.226836
 30
0.0
  0
SPLINE
  5
109
100
AcDbEntity
  8
Layer_1
 62
7
100
AcDbSpline
 70
8
 71
3
 72
8
 73
4
 74
0
 40
0
 40
0
 40
0
 40
0
 40
1
 40
1
 40
1
 40
1
 10
818.462466
 20
2670.226836
 30
0.0
 10
820.858472
 20
2685.615802
 30
0.0
 10
839.599821
 20
2749.396003
 30
0.0
 10
858.217807
 20
2805.523532
 30
0.0
  0
SPLINE
  5
10a
100
AcDbEntity
  8
Layer_1
 62
7
100
AcDbSpline
 70
8
 71
3
 72
8
 73
4
 74
0
 40
0
 40
0
 40
0
 40
0
 40
1
 40
1
 40
1
 40
1
 10
858.217807
 20
2805.523532
 30
0.0
 10
861.528693
 20
2815.503442
 30
0.0
 10
866.152186
 20
2835.479418
 30
0.0
 10
868.492604
 20
2849.911976
 30
0.0
  0
SPLINE
  5
10b
100
AcDbEntity
  8
Layer_1
 62
7
100
AcDbSpline
 70
8
 71
3
 72
8
 73
4
 74
0
 40
0
 40
0
 40
0
 40
0
 40
1
 40
1
 40
1
 40
1
 10
868.492604
 20
2849.911976
 30
0.0
 10
876.758777
 20
2900.890953
 30
0.0
 10
857.782180
 20
2966.312693
 30
0.0
 10
826.738162
 20
2993.857152
 30
0.0
  0
SPLINE
  5
10c
100
AcDbEntity
  8
Layer_1
 62
7
100
AcDbSpline
 70
8
 71
3
 72
8
 73
4
 74
0
 40
0
 40
0
 40
0
 40
0
 40
1
 40
1
 40
1
 40
1
 10
826.738162
 20
2993.857152
 30
0.0
 10
812.640346
 20
3006.368960
 30
0.0
 10
781.089410
 20
3015.364967
 30
0.0
 10
750.542956
 20
3015.587202
 30
0.0
  0
SPLINE
  5
10d
100
AcDbEntity
  8
Layer_1
 62
7
100
AcDbSpline
 70
8
 71
3
 72
8
 73
4
 74
0
 40
0
 40
0
 40
0
 40
0
 40
1
 40
1
 40
1
 40
1
 10
750.542956
 20
3015.587202
 30
0.0
 10
726.530824
 20
3015.862162
 30
0.0
 10
718.008372
 20
3013.750640
 30
0.0
 10
701.135616
 20
3003.927203
 30
0.0
  0
SPLINE
  5
10e
100
AcDbEntity
  8
Layer_1
 62
7
100
AcDbSpline
 70
8
 71
3
 72
8
 73
4
 74
0
 40
0
 40
0
 40
0
 40
0
 40
1
 40
1
 40
1
 40
1
 10
701.135616
 20
3003.927203
 30
0.0
 10
679.619638
 20
2991.404623
 30
0.0
 10
664.405201
 20
2967.036093
 30
0.0
 10
664.216868
 20
2944.799493
 30
0.0
  0
SPLINE
  5
10f
100
AcDbEntity
  8
Layer_1
 62
7
100
AcDbSpline
 70
8
 71
3
 72
8
 73
4
 74
0
 40
0
 40
0
 40
0
 40
0
 40
1
 40
1
 40
1
 40
1
 10
664.216868
 20
2944.799493
 30
0.0
 10
664.101498
 20
2930.972696
 30
0.0
 10
678.831722
 20
2911.495333
 30
0.0
 10
693.636015
 20
2905.905427
 30
0.0
  0
SPLINE
  5
110
100
AcDbEntity
  8
Layer_1
 62
7
100
AcDbSpline
 70
8
 71
3
 72
8
 73
4
 74
0
 40
0
 40
0
 40
0
 40
0
 40
1
 40
1
 40
1
 40
1
 10
693.636015
 20
2905.905427
 30
0.0
 10
719.236819
 20
2896.237895
 30
0.0
 10
752.070231
 20
2924.456148
 30
0.0
 10
753.211796
 20
2957.105506
 30
0.0
  0
SPLINE
  5
111
100
AcDbEntity
  8
Layer_1
 62
7
100
AcDbSpline
 70
8
 71
3
 72
8
 73
4
 74
0
 40
0
 40
0
 40
0
 40
0
 40
1
 40
1
 40
1
 40
1
 10
753.211796
 20
2957.105506
 30
0.0
 10
753.513090
 20
2965.742931
 30
0.0
 10
755.763282
 20
2973.475823
 30
0.0
 10
758.210311
 20
2974.284261
 30
0.0
  0
SPLINE
  5
112
100
AcDbEntity
  8
Layer_1
 62
7
100
AcDbSpline
 70
8
 71
3
 72
8
 73
4
 74
0
 40
0
 40
0
 40
0
 40
0
 40
1
 40
1
 40
1
 40
1
 10
758.210311
 20
2974.284261
 30
0.0
 10
765.824290
 20
2976.805388
 30
0.0
 10
793.738074
 20
2948.208145
 30
0.0
 10
798.749742
 20
2932.753699
 30
0.0
  0
SPLINE
  5
113
100
AcDbEntity
  8
Layer_1
 62
7
100
AcDbSpline
 70
8
 71
3
 72
8
 73
4
 74
0
 40
0
 40
0
 40
0
 40
0
 40
1
 40
1
 40
1
 40
1
 10
798.749742
 20
2932.753699
 30
0.0
 10
805.791295
 20
2911.040374
 30
0.0
 10
804.724847
 20
2900.786922
 30
0.0
 10
792.193225
 20
2869.696331
 30
0.0
  0
SPLINE
  5
114
100
AcDbEntity
  8
Layer_1
 62
7
100
AcDbSpline
 70
8
 71
3
 72
8
 73
4
 74
0
 40
0
 40
0
 40
0
 40
0
 40
1
 40
1
 40
1
 40
1
 10
792.193225
 20
2869.696331
 30
0.0
 10
781.883591
 20
2844.119394
 30
0.0
 10
761.749839
 20
2819.698989
 30
0.0
 10
746.924173
 20
2814.791097
 30
0.0
  0
SPLINE
  5
115
100
AcDbEntity
  8
Layer_1
 62
7
100
AcDbSpline
 70
8
 71
3
 72
8
 73
4
 74
0
 40
0
 40
0
 40
0
 40
0
 40
1
 40
1
 40
1
 40
1
 10
746.924173
 20
2814.791097
 30
0.0
 10
744.018470
 20
2813.831856
 30
0.0
 10
750.502648
 20
2804.394780
 30
0.0
 10
761.748478
 20
2793.225456
 30
0.0
  0
SPLINE
  5
116
100
AcDbEntity
  8
Layer_1
 62
7
100
AcDbSpline
 70
8
 71
3
 72
8
 73
4
 74
0
 40
0
 40
0
 40
0
 40
0
 40
1
 40
1
 40
1
 40
1
 10
761.748478
 20
2793.225456
 30
0.0
 10
780.819383
 20
2774.285540
 30
0.0
 10
781.738316
 20
2772.238648
 30
0.0
 10
781.738316
 20
2748.722209
 30
0.0
  0
SPLINE
  5
117
100
AcDbEntity
  8
Layer_1
 62
7
100
AcDbSpline
 70
8
 71
3
 72
8
 73
4
 74
0
 40
0
 40
0
 40
0
 40
0
 40
1
 40
1
 40
1
 40
1
 10
781.738316
 20
2748.722209
 30
0.0
 10
781.738316
 20
2721.753465
 30
0.0
 10
777.828981
 20
2711.466848
 30
0.0
 10
760.513965
 20
2692.885230
 30
0.0
  0
SPLINE
  5
118
100
AcDbEntity
  8
Layer_1
 62
7
100
AcDbSpline
 70
8
 71
3
 72
8
 73
4
 74
0
 40
0
 40
0
 40
0
 40
0
 40
1
 40
1
 40
1
 40
1
 10
760.513965
 20
2692.885230
 30
0.0
 10
743.982074
 20
2675.145216
 30
0.0
 10
728.447125
 20
2668.393393
 30
0.0
 10
704.151245
 20
2668.393393
 30
0.0
  0
SPLINE
  5
119
100
AcDbEntity
  8
Layer_1
 62
7
100
AcDbSpline
 70
8
 71
3
 72
8
 73
4
 74
0
 40
0
 40
0
 40
0
 40
0
 40
1
 40
1
 40
1
 40
1
 10
704.151245
 20
2668.393393
 30
0.0
 10
688.474366
 20
2668.393393
 30
0.0
 10
678.441846
 20
2671.306833
 30
0.0
 10
666.585803
 20
2679.296827
 30
0.0
  0
SPLINE
  5
11a
100
AcDbEntity
  8
Layer_1
 62
7
100
AcDbSpline
 70
8
 71
3
 72
8
 73
4
 74
0
 40
0
 40
0
 40
0
 40
0
 40
1
 40
1
 40
1
 40
1
 10
666.585803
 20
2679.296827
 30
0.0
 10
650.409376
 20
2690.199978
 30
0.0
 10
650.409376
 20
2690.199978
 30
0.0
 10
630.963703
 20
2673.199805
 30
0.0
  0
SPLINE
  5
11b
100
AcDbEntity
  8
Layer_1
 62
7
100
AcDbSpline
 70
8
 71
3
 72
8
 73
4
 74
0
 40
0
 40
0
 40
0
 40
0
 40
1
 40
1
 40
1
 40
1
 10
630.963703
 20
2673.199805
 30
0.0
 10
594.307868
 20
2641.153374
 30
0.0
 10
550.260998
 20
2640.339266
 30
0.0
 10
516.006639
 20
2671.090267
 30
0.0
  0
SPLINE
  5
11c
100
AcDbEntity
  8
Layer_1
 62
7
100
AcDbSpline
 70
8
 71
3
 72
8
 73
4
 74
0
 40
0
 40
0
 40
0
 40
0
 40
1
 40
1
 40
1
 40
1
 10
516.006639
 20
2671.090267
 30
0.0
 10
496.265201
 20
2688.802501
 30
0.0
 10
487.920963
 20
2710.036490
 30
0.0
 10
491.189102
 20
2734.237777
 30
0.0
  0
SPLINE
  5
11d
100
AcDbEntity
  8
Layer_1
 62
7
100
AcDbSpline
 70
8
 71
3
 72
8
 73
4
 74
0
 40
0
 40
0
 40
0
 40
0
 40
1
 40
1
 40
1
 40
1
 10
491.189102
 20
2734.237777
 30
0.0
 10
493.525665
 20
2751.538989
 30
0.0
 10
508.464547
 20
2772.246869
 30
0.0
 10
518.610254
 20
2772.246869
 30
0.0
  0
SPLINE
  5
11e
100
AcDbEntity
  8
Layer_1
 62
7
100
AcDbSpline
 70
8
 71
3
 72
8
 73
4
 74
0
 40
0
 40
0
 40
0
 40
0
 40
1
 40
1
 40
1
 40
1
 10
518.610254
 20
2772.246869
 30
0.0
 10
521.600684
 20
2772.246869
 30
0.0
 10
526.268057
 20
2765.563360
 30
0.0
 10
528.982392
 20
2757.395351
 30
0.0
  0
SPLINE
  5
11f
100
AcDbEntity
  8
Layer_1
 62
7
100
AcDbSpline
 70
8
 71
3
 72
8
 73
4
 74
0
 40
0
 40
0
 40
0
 40
0
 40
1
 40
1
 40
1
 40
1
 10
528.982392
 20
2757.395351
 30
0.0
 10
535.650793
 20
2737.328099
 30
0.0
 10
555.371935
 20
2732.207043
 30
0.0
 10
570.744799
 20
2746.549460
 30
0.0
  0
SPLINE
  5
120
100
AcDbEntity
  8
Layer_1
 62
7
100
AcDbSpline
 70
8
 71
3
 72
8
 73
4
 74
0
 40
0
 40
0
 40
0
 40
0
 40
1
 40
1
 40
1
 40
1
 10
570.744799
 20
2746.549460
 30
0.0
 10
576.497300
 20
2751.917697
 30
0.0
 10
582.303999
 20
2759.751502
 30
0.0
 10
583.649006
 20
2763.960655
 30
0.0
  0
SPLINE
  5
121
100
AcDbEntity
  8
Layer_1
 62
7
100
AcDbSpline
 70
8
 71
3
 72
8
 73
4
 74
0
 40
0
 40
0
 40
0
 40
0
 40
1
 40
1
 40
1
 40
1
 10
583.649006
 20
2763.960655
 30
0.0
 10
587.147686
 20
2774.910011
 30
0.0
 10
575.193934
 20
2800.673750
 30
0.0
 10
562.903312
 20
2808.669413
 30
0.0
  0
SPLINE
  5
122
100
AcDbEntity
  8
Layer_1
 62
7
100
AcDbSpline
 70
8
 71
3
 72
8
 73
4
 74
0
 40
0
 40
0
 40
0
 40
0
 40
1
 40
1
 40
1
 40
1
 10
562.903312
 20
2808.669413
 30
0.0
 10
536.190054
 20
2826.055664
 30
0.0
 10
487.981822
 20
2823.124082
 30
0.0
 10
466.189467
 20
2802.788957
 30
0.0
  0
SPLINE
  5
123
100
AcDbEntity
  8
Layer_1
 62
7
100
AcDbSpline
 70
8
 71
3
 72
8
 73
4
 74
0
 40
0
 40
0
 40
0
 40
0
 40
1
 40
1
 40
1
 40
1
 10
466.189467
 20
2802.788957
 30
0.0
 10
440.708709
 20
2779.015417
 30
0.0
 10
427.146356
 20
2724.959724
 30
0.0
 10
437.471865
 20
2688.328550
 30
0.0
  0
SPLINE
  5
124
100
AcDbEntity
  8
Layer_1
 62
7
100
AcDbSpline
 70
8
 71
3
 72
8
 73
4
 74
0
 40
0
 40
0
 40
0
 40
0
 40
1
 40
1
 40
1
 40
1
 10
437.471865
 20
2688.328550
 30
0.0
 10
444.606053
 20
2663.022604
 30
0.0
 10
479.976947
 20
2623.780729
 30
0.0
 10
508.903490
 20
2609.082281
 30
0.0
  0
SPLINE
  5
125
100
AcDbEntity
  8
Layer_1
 62
7
100
AcDbSpline
 70
8
 71
3
 72
8
 73
4
 74
0
 40
0
 40
0
 40
0
 40
0
 40
1
 40
1
 40
1
 40
1
 10
508.903490
 20
2609.082281
 30
0.0
 10
527.390403
 20
2599.688859
 30
0.0
 10
564.513443
 20
2588.535976
 30
0.0
 10
583.531652
 20
2586.658879
 30
0.0
  0
SPLINE
  5
126
100
AcDbEntity
  8
Layer_1
 62
7
100
AcDbSpline
 70
8
 71
3
 72
8
 73
4
 74
0
 40
0
 40
0
 40
0
 40
0
 40
1
 40
1
 40
1
 40
1
 10
583.531652
 20
2586.658879
 30
0.0
 10
585.927686
 20
2586.386754
 30
0.0
 10
605.469566
 20
2589.289423
 30
0.0
 10
626.958133
 20
2593.018956
 30
0.0
  0
LWPOLYLINE
  5
127
100
AcDbEntity
  8
Layer_1
 62
7
100
AcDbPolyline
 90
2
 70
0
 10
1174.855837
 20
2806.123625
 30
0.0
 10
1174.855837
 20
2806.132129
 30
0.0
  0
SPLINE
  5
128
100
AcDbEntity
  8
Layer_1
 62
7
100
AcDbSpline
 70
8
 71
3
 72
8
 73
4
 74
0
 40
0
 40
0
 40
0
 40
0
 40
1
 40
1
 40
1
 40
1
 10
1805.444149
 20
2593.580781
 30
0.0
 10
1850.270148
 20
2611.759313
 30
0.0
 10
1871.445686
 20
2630.877528
 30
0.0
 10
1886.565503
 20
2666.820736
 30
0.0
  0
SPLINE
  5
129
100
AcDbEntity
  8
Layer_1
 62
7
100
AcDbSpline
 70
8
 71
3
 72
8
 73
4
 74
0
 40
0
 40
0
 40
0
 40
0
 40
1
 40
1
 40
1
 40
1
 10
1886.565503
 20
2666.820736
 30
0.0
 10
1896.796476
 20
2691.140227
 30
0.0
 10
1901.740764
 20
2732.612679
 30
0.0
 10
1896.658032
 20
2751.476060
 30
0.0
  0
SPLINE
  5
12a
100
AcDbEntity
  8
Layer_1
 62
7
100
AcDbSpline
 70
8
 71
3
 72
8
 73
4
 74
0
 40
0
 40
0
 40
0
 40
0
 40
1
 40
1
 40
1
 40
1
 10
1896.658032
 20
2751.476060
 30
0.0
 10
1881.648398
 20
2807.178677
 30
0.0
 10
1799.160664
 20
2834.030067
 30
0.0
 10
1760.627165
 20
2795.757638
 30
0.0
  0
SPLINE
  5
12b
100
AcDbEntity
  8
Layer_1
 62
7
100
AcDbSpline
 70
8
 71
3
 72
8
 73
4
 74
0
 40
0
 40
0
 40
0
 40
0
 40
1
 40
1
 40
1
 40
1
 10
1760.627165
 20
2795.757638
 30
0.0
 10
1739.356808
 20
2774.630799
 30
0.0
 10
1741.106432
 20
2736.832605
 30
0.0
 10
1763.915827
 20
2724.707158
 30
0.0
  0
SPLINE
  5
12c
100
AcDbEntity
  8
Layer_1
 62
7
100
AcDbSpline
 70
8
 71
3
 72
8
 73
4
 74
0
 40
0
 40
0
 40
0
 40
0
 40
1
 40
1
 40
1
 40
1
 10
1763.915827
 20
2724.707158
 30
0.0
 10
1780.672646
 20
2715.801576
 30
0.0
 10
1797.462858
 20
2725.639187
 30
0.0
 10
1802.969369
 20
2747.588071
 30
0.0
  0
SPLINE
  5
12d
100
AcDbEntity
  8
Layer_1
 62
7
100
AcDbSpline
 70
8
 71
3
 72
8
 73
4
 74
0
 40
0
 40
0
 40
0
 40
0
 40
1
 40
1
 40
1
 40
1
 10
1802.969369
 20
2747.588071
 30
0.0
 10
1807.697630
 20
2766.432460
 30
0.0
 10
1812.628227
 20
2766.174507
 30
0.0
 10
1826.136042
 20
2746.382216
 30
0.0
  0
SPLINE
  5
12e
100
AcDbEntity
  8
Layer_1
 62
7
100
AcDbSpline
 70
8
 71
3
 72
8
 73
4
 74
0
 40
0
 40
0
 40
0
 40
0
 40
1
 40
1
 40
1
 40
1
 10
1826.136042
 20
2746.382216
 30
0.0
 10
1832.861447
 20
2736.522779
 30
0.0
 10
1835.937397
 20
2725.625580
 30
0.0
 10
1835.937397
 20
2711.661304
 30
0.0
  0
SPLINE
  5
12f
100
AcDbEntity
  8
Layer_1
 62
7
100
AcDbSpline
 70
8
 71
3
 72
8
 73
4
 74
0
 40
0
 40
0
 40
0
 40
0
 40
1
 40
1
 40
1
 40
1
 10
1835.937397
 20
2711.661304
 30
0.0
 10
1835.937397
 20
2646.650020
 30
0.0
 10
1745.771905
 20
2618.659105
 30
0.0
 10
1691.943324
 20
2666.960483
 30
0.0
  0
SPLINE
  5
130
100
AcDbEntity
  8
Layer_1
 62
7
100
AcDbSpline
 70
8
 71
3
 72
8
 73
4
 74
0
 40
0
 40
0
 40
0
 40
0
 40
1
 40
1
 40
1
 40
1
 10
1691.943324
 20
2666.960483
 30
0.0
 10
1674.895443
 20
2682.259024
 30
0.0
 10
1674.895443
 20
2682.259024
 30
0.0
 10
1661.862686
 20
2671.366928
 30
0.0
  0
SPLINE
  5
131
100
AcDbEntity
  8
Layer_1
 62
7
100
AcDbSpline
 70
8
 71
3
 72
8
 73
4
 74
0
 40
0
 40
0
 40
0
 40
0
 40
1
 40
1
 40
1
 40
1
 10
1661.862686
 20
2671.366928
 30
0.0
 10
1627.017022
 20
2642.244142
 30
0.0
 10
1583.290863
 20
2660.052471
 30
0.0
 10
1555.477141
 20
2714.689264
 30
0.0
  0
SPLINE
  5
132
100
AcDbEntity
  8
Layer_1
 62
7
100
AcDbSpline
 70
8
 71
3
 72
8
 73
4
 74
0
 40
0
 40
0
 40
0
 40
0
 40
1
 40
1
 40
1
 40
1
 10
1555.477141
 20
2714.689264
 30
0.0
 10
1539.611588
 20
2745.858658
 30
0.0
 10
1553.705606
 20
2778.702756
 30
0.0
 10
1591.126879
 20
2797.771648
 30
0.0
  0
SPLINE
  5
133
100
AcDbEntity
  8
Layer_1
 62
7
100
AcDbSpline
 70
8
 71
3
 72
8
 73
4
 74
0
 40
0
 40
0
 40
0
 40
0
 40
1
 40
1
 40
1
 40
1
 10
1591.126879
 20
2797.771648
 30
0.0
 10
1606.378307
 20
2805.542808
 30
0.0
 10
1606.378307
 20
2805.542808
 30
0.0
 10
1592.457316
 20
2810.363109
 30
0.0
  0
SPLINE
  5
134
100
AcDbEntity
  8
Layer_1
 62
7
100
AcDbSpline
 70
8
 71
3
 72
8
 73
4
 74
0
 40
0
 40
0
 40
0
 40
0
 40
1
 40
1
 40
1
 40
1
 10
1592.457316
 20
2810.363109
 30
0.0
 10
1569.198518
 20
2818.416032
 30
0.0
 10
1553.086294
 20
2832.500780
 30
0.0
 10
1541.773794
 20
2854.674735
 30
0.0
  0
SPLINE
  5
135
100
AcDbEntity
  8
Layer_1
 62
7
100
AcDbSpline
 70
8
 71
3
 72
8
 73
4
 74
0
 40
0
 40
0
 40
0
 40
0
 40
1
 40
1
 40
1
 40
1
 10
1541.773794
 20
2854.674735
 30
0.0
 10
1524.008466
 20
2889.494008
 30
0.0
 10
1530.170487
 20
2927.111636
 30
0.0
 10
1557.806023
 20
2952.546274
 30
0.0
  0
SPLINE
  5
136
100
AcDbEntity
  8
Layer_1
 62
7
100
AcDbSpline
 70
8
 71
3
 72
8
 73
4
 74
0
 40
0
 40
0
 40
0
 40
0
 40
1
 40
1
 40
1
 40
1
 10
1557.806023
 20
2952.546274
 30
0.0
 10
1573.656184
 20
2967.132187
 30
0.0
 10
1579.570684
 20
2966.627621
 30
0.0
 10
1581.520461
 20
2950.518091
 30
0.0
  0
SPLINE
  5
137
100
AcDbEntity
  8
Layer_1
 62
7
100
AcDbSpline
 70
8
 71
3
 72
8
 73
4
 74
0
 40
0
 40
0
 40
0
 40
0
 40
1
 40
1
 40
1
 40
1
 10
1581.520461
 20
2950.518091
 30
0.0
 10
1587.129813
 20
2904.184235
 30
0.0
 10
1629.495374
 20
2883.410876
 30
0.0
 10
1657.657529
 20
2913.185628
 30
0.0
  0
SPLINE
  5
138
100
AcDbEntity
  8
Layer_1
 62
7
100
AcDbSpline
 70
8
 71
3
 72
8
 73
4
 74
0
 40
0
 40
0
 40
0
 40
0
 40
1
 40
1
 40
1
 40
1
 10
1657.657529
 20
2913.185628
 30
0.0
 10
1669.102067
 20
2925.283862
 30
0.0
 10
1671.114377
 20
2947.487296
 30
0.0
 10
1662.211403
 20
2963.430150
 30
0.0
  0
SPLINE
  5
139
100
AcDbEntity
  8
Layer_1
 62
7
100
AcDbSpline
 70
8
 71
3
 72
8
 73
4
 74
0
 40
0
 40
0
 40
0
 40
0
 40
1
 40
1
 40
1
 40
1
 10
1662.211403
 20
2963.430150
 30
0.0
 10
1652.339012
 20
2981.106951
 30
0.0
 10
1617.646078
 20
3005.407167
 30
0.0
 10
1598.131921
 20
3008.311821
 30
0.0
  0
SPLINE
  5
13a
100
AcDbEntity
  8
Layer_1
 62
7
100
AcDbSpline
 70
8
 71
3
 72
8
 73
4
 74
0
 40
0
 40
0
 40
0
 40
0
 40
1
 40
1
 40
1
 40
1
 10
1598.131921
 20
3008.311821
 30
0.0
 10
1539.513198
 20
3017.044773
 30
0.0
 10
1485.094955
 20
2980.186261
 30
0.0
 10
1470.497875
 20
2921.869541
 30
0.0
  0
SPLINE
  5
13b
100
AcDbEntity
  8
Layer_1
 62
7
100
AcDbSpline
 70
8
 71
3
 72
8
 73
4
 74
0
 40
0
 40
0
 40
0
 40
0
 40
1
 40
1
 40
1
 40
1
 10
1470.497875
 20
2921.869541
 30
0.0
 10
1458.197672
 20
2872.729677
 30
0.0
 10
1463.856091
 20
2830.788376
 30
0.0
 10
1495.832280
 20
2734.086974
 30
0.0
  0
SPLINE
  5
13c
100
AcDbEntity
  8
Layer_1
 62
7
100
AcDbSpline
 70
8
 71
3
 72
8
 73
4
 74
0
 40
0
 40
0
 40
0
 40
0
 40
1
 40
1
 40
1
 40
1
 10
1495.832280
 20
2734.086974
 30
0.0
 10
1505.026910
 20
2706.282012
 30
0.0
 10
1513.888242
 20
2675.742758
 30
0.0
 10
1515.524395
 20
2666.226312
 30
0.0
  0
SPLINE
  5
13d
100
AcDbEntity
  8
Layer_1
 62
7
100
AcDbSpline
 70
8
 71
3
 72
8
 73
4
 74
0
 40
0
 40
0
 40
0
 40
0
 40
1
 40
1
 40
1
 40
1
 10
1515.524395
 20
2666.226312
 30
0.0
 10
1518.031718
 20
2651.640116
 30
0.0
 10
1521.076175
 20
2647.729733
 30
0.0
 10
1534.891605
 20
2641.347546
 30
0.0
  0
SPLINE
  5
13e
100
AcDbEntity
  8
Layer_1
 62
7
100
AcDbSpline
 70
8
 71
3
 72
8
 73
4
 74
0
 40
0
 40
0
 40
0
 40
0
 40
1
 40
1
 40
1
 40
1
 10
1534.891605
 20
2641.347546
 30
0.0
 10
1568.168835
 20
2625.975305
 30
0.0
 10
1608.319269
 20
2610.800072
 30
0.0
 10
1648.621016
 20
2598.359697
 30
0.0
  0
SPLINE
  5
13f
100
AcDbEntity
  8
Layer_1
 62
7
100
AcDbSpline
 70
8
 71
3
 72
8
 73
4
 74
0
 40
0
 40
0
 40
0
 40
0
 40
1
 40
1
 40
1
 40
1
 10
1648.621016
 20
2598.359697
 30
0.0
 10
1671.381910
 20
2591.336598
 30
0.0
 10
1691.964980
 20
2584.768459
 30
0.0
 10
1694.361043
 20
2583.765564
 30
0.0
  0
SPLINE
  5
140
100
AcDbEntity
  8
Layer_1
 62
7
100
AcDbSpline
 70
8
 71
3
 72
8
 73
4
 74
0
 40
0
 40
0
 40
0
 40
0
 40
1
 40
1
 40
1
 40
1
 10
1694.361043
 20
2583.765564
 30
0.0
 10
1705.810344
 20
2578.978144
 30
0.0
 10
1787.160622
 20
2586.176707
 30
0.0
 10
1805.444149
 20
2593.583616
 30
0.0
  0
LWPOLYLINE
  5
141
100
AcDbEntity
  8
Layer_1
 62
7
100
AcDbPolyline
 90
2
 70
0
 10
626.958133
 20
2593.018956
 30
0.0
 10
626.958133
 20
2593.005350
 30
0.0
  0
SPLINE
  5
142
100
AcDbEntity
  8
Layer_1
 62
7
100
AcDbSpline
 70
8
 71
3
 72
8
 73
4
 74
0
 40
0
 40
0
 40
0
 40
0
 40
1
 40
1
 40
1
 40
1
 10
1398.596691
 20
2522.132885
 30
0.0
 10
1420.418357
 20
2537.642605
 30
0.0
 10
1443.251903
 20
2566.612037
 30
0.0
 10
1437.868727
 20
2571.960715
 30
0.0
  0
SPLINE
  5
143
100
AcDbEntity
  8
Layer_1
 62
7
100
AcDbSpline
 70
8
 71
3
 72
8
 73
4
 74
0
 40
0
 40
0
 40
0
 40
0
 40
1
 40
1
 40
1
 40
1
 10
1437.868727
 20
2571.960715
 30
0.0
 10
1430.422332
 20
2579.353734
 30
0.0
 10
1374.097172
 20
2537.711204
 30
0.0
 10
1363.176134
 20
2516.734884
 30
0.0
  0
SPLINE
  5
144
100
AcDbEntity
  8
Layer_1
 62
7
100
AcDbSpline
 70
8
 71
3
 72
8
 73
4
 74
0
 40
0
 40
0
 40
0
 40
0
 40
1
 40
1
 40
1
 40
1
 10
1363.176134
 20
2516.734884
 30
0.0
 10
1349.623901
 20
2490.705822
 30
0.0
 10
1355.673273
 20
2491.629347
 30
0.0
 10
1398.596691
 20
2522.132885
 30
0.0
  0
LWPOLYLINE
  5
145
100
AcDbEntity
  8
Layer_1
 62
7
100
AcDbPolyline
 90
2
 70
0
 10
1805.444149
 20
2593.583616
 30
0.0
 10
1805.444149
 20
2593.580781
 30
0.0
  0
SPLINE
  5
146
100
AcDbEntity
  8
Layer_1
 62
7
100
AcDbSpline
 70
8
 71
3
 72
8
 73
4
 74
0
 40
0
 40
0
 40
0
 40
0
 40
1
 40
1
 40
1
 40
1
 10
973.410940
 20
2499.932001
 30
0.0
 10
973.410940
 20
2516.392176
 30
0.0
 10
939.479815
 20
2550.899640
 30
0.0
 10
907.440358
 20
2567.025611
 30
0.0
  0
SPLINE
  5
147
100
AcDbEntity
  8
Layer_1
 62
7
100
AcDbSpline
 70
8
 71
3
 72
8
 73
4
 74
0
 40
0
 40
0
 40
0
 40
0
 40
1
 40
1
 40
1
 40
1
 10
907.440358
 20
2567.025611
 30
0.0
 10
895.806012
 20
2572.881405
 30
0.0
 10
886.287043
 20
2576.569836
 30
0.0
 10
886.287043
 20
2575.221682
 30
0.0
  0
SPLINE
  5
148
100
AcDbEntity
  8
Layer_1
 62
7
100
AcDbSpline
 70
8
 71
3
 72
8
 73
4
 74
0
 40
0
 40
0
 40
0
 40
0
 40
1
 40
1
 40
1
 40
1
 10
886.287043
 20
2575.221682
 30
0.0
 10
886.287043
 20
2561.592177
 30
0.0
 10
918.906921
 20
2526.308873
 30
0.0
 10
949.451731
 20
2506.903226
 30
0.0
  0
SPLINE
  5
149
100
AcDbEntity
  8
Layer_1
 62
7
100
AcDbSpline
 70
8
 71
3
 72
8
 73
4
 74
0
 40
0
 40
0
 40
0
 40
0
 40
1
 40
1
 40
1
 40
1
 10
949.451731
 20
2506.903226
 30
0.0
 10
968.943381
 20
2494.517560
 30
0.0
 10
973.410940
 20
2493.218445
 30
0.0
 10
973.410940
 20
2499.932001
 30
0.0
  0
LWPOLYLINE
  5
14a
100
AcDbEntity
  8
Layer_1
 62
7
100
AcDbPolyline
 90
1
 70
1
 10
1398.596691
 20
2522.132885
 30
0.0
  0
SPLINE
  5
14b
100
AcDbEntity
  8
Layer_1
 62
7
100
AcDbSpline
 70
8
 71
3
 72
8
 73
4
 74
0
 40
0
 40
0
 40
0
 40
0
 40
1
 40
1
 40
1
 40
1
 10
1249.849185
 20
2450.224926
 30
0.0
 10
1282.279029
 20
2466.142552
 30
0.0
 10
1282.405397
 20
2466.274079
 30
0.0
 10
1291.288359
 20
2492.785596
 30
0.0
  0
SPLINE
  5
14c
100
AcDbEntity
  8
Layer_1
 62
7
100
AcDbSpline
 70
8
 71
3
 72
8
 73
4
 74
0
 40
0
 40
0
 40
0
 40
0
 40
1
 40
1
 40
1
 40
1
 10
1291.288359
 20
2492.785596
 30
0.0
 10
1315.171089
 20
2564.065965
 30
0.0
 10
1357.025083
 20
2611.405834
 30
0.0
 10
1416.462421
 20
2634.371503
 30
0.0
  0
SPLINE
  5
14d
100
AcDbEntity
  8
Layer_1
 62
7
100
AcDbSpline
 70
8
 71
3
 72
8
 73
4
 74
0
 40
0
 40
0
 40
0
 40
0
 40
1
 40
1
 40
1
 40
1
 10
1416.462421
 20
2634.371503
 30
0.0
 10
1452.592431
 20
2648.329826
 30
0.0
 10
1452.592431
 20
2648.329826
 30
0.0
 10
1452.592431
 20
2670.807937
 30
0.0
  0
SPLINE
  5
14e
100
AcDbEntity
  8
Layer_1
 62
7
100
AcDbSpline
 70
8
 71
3
 72
8
 73
4
 74
0
 40
0
 40
0
 40
0
 40
0
 40
1
 40
1
 40
1
 40
1
 10
1452.592431
 20
2670.807937
 30
0.0
 10
1452.592431
 20
2714.544131
 30
0.0
 10
1421.171718
 20
2769.640986
 30
0.0
 10
1385.713943
 20
2788.076903
 30
0.0
  0
SPLINE
  5
14f
100
AcDbEntity
  8
Layer_1
 62
7
100
AcDbSpline
 70
8
 71
3
 72
8
 73
4
 74
0
 40
0
 40
0
 40
0
 40
0
 40
1
 40
1
 40
1
 40
1
 10
1385.713943
 20
2788.076903
 30
0.0
 10
1335.540060
 20
2814.166343
 30
0.0
 10
1283.745699
 20
2811.601846
 30
0.0
 10
1254.378114
 20
2781.569142
 30
0.0
  0
SPLINE
  5
150
100
AcDbEntity
  8
Layer_1
 62
7
100
AcDbSpline
 70
8
 71
3
 72
8
 73
4
 74
0
 40
0
 40
0
 40
0
 40
0
 40
1
 40
1
 40
1
 40
1
 10
1254.378114
 20
2781.569142
 30
0.0
 10
1236.472388
 20
2763.259082
 30
0.0
 10
1233.776675
 20
2740.819523
 30
0.0
 10
1247.466275
 20
2724.030530
 30
0.0
  0
SPLINE
  5
151
100
AcDbEntity
  8
Layer_1
 62
7
100
AcDbSpline
 70
8
 71
3
 72
8
 73
4
 74
0
 40
0
 40
0
 40
0
 40
0
 40
1
 40
1
 40
1
 40
1
 10
1247.466275
 20
2724.030530
 30
0.0
 10
1259.255761
 20
2709.570475
 30
0.0
 10
1290.555576
 20
2709.606192
 30
0.0
 10
1306.087209
 20
2724.030530
 30
0.0
  0
SPLINE
  5
152
100
AcDbEntity
  8
Layer_1
 62
7
100
AcDbSpline
 70
8
 71
3
 72
8
 73
4
 74
0
 40
0
 40
0
 40
0
 40
0
 40
1
 40
1
 40
1
 40
1
 10
1306.087209
 20
2724.030530
 30
0.0
 10
1320.784608
 20
2737.745358
 30
0.0
 10
1329.404599
 20
2733.459669
 30
0.0
 10
1332.781588
 20
2710.757055
 30
0.0
  0
SPLINE
  5
153
100
AcDbEntity
  8
Layer_1
 62
7
100
AcDbSpline
 70
8
 71
3
 72
8
 73
4
 74
0
 40
0
 40
0
 40
0
 40
0
 40
1
 40
1
 40
1
 40
1
 10
1332.781588
 20
2710.757055
 30
0.0
 10
1341.034240
 20
2655.273555
 30
0.0
 10
1291.736855
 20
2621.514152
 30
0.0
 10
1236.151875
 20
2644.581301
 30
0.0
  0
SPLINE
  5
154
100
AcDbEntity
  8
Layer_1
 62
7
100
AcDbSpline
 70
8
 71
3
 72
8
 73
4
 74
0
 40
0
 40
0
 40
0
 40
0
 40
1
 40
1
 40
1
 40
1
 10
1236.151875
 20
2644.581301
 30
0.0
 10
1227.475332
 20
2648.182142
 30
0.0
 10
1219.718856
 20
2650.475364
 30
0.0
 10
1218.915605
 20
2649.675145
 30
0.0
  0
SPLINE
  5
155
100
AcDbEntity
  8
Layer_1
 62
7
100
AcDbSpline
 70
8
 71
3
 72
8
 73
4
 74
0
 40
0
 40
0
 40
0
 40
0
 40
1
 40
1
 40
1
 40
1
 10
1218.915605
 20
2649.675145
 30
0.0
 10
1218.112070
 20
2648.880880
 30
0.0
 10
1228.672286
 20
2640.566887
 30
0.0
 10
1242.382466
 20
2631.208897
 30
0.0
  0
SPLINE
  5
156
100
AcDbEntity
  8
Layer_1
 62
7
100
AcDbSpline
 70
8
 71
3
 72
8
 73
4
 74
0
 40
0
 40
0
 40
0
 40
0
 40
1
 40
1
 40
1
 40
1
 10
1242.382466
 20
2631.208897
 30
0.0
 10
1268.099519
 20
2613.653135
 30
0.0
 10
1290.065382
 20
2582.833819
 30
0.0
 10
1285.424315
 20
2570.823742
 30
0.0
  0
SPLINE
  5
157
100
AcDbEntity
  8
Layer_1
 62
7
100
AcDbSpline
 70
8
 71
3
 72
8
 73
4
 74
0
 40
0
 40
0
 40
0
 40
0
 40
1
 40
1
 40
1
 40
1
 10
1285.424315
 20
2570.823742
 30
0.0
 10
1282.197873
 20
2562.471198
 30
0.0
 10
1224.277691
 20
2562.076900
 30
0.0
 10
1208.418459
 20
2570.303019
 30
0.0
  0
SPLINE
  5
158
100
AcDbEntity
  8
Layer_1
 62
7
100
AcDbSpline
 70
8
 71
3
 72
8
 73
4
 74
0
 40
0
 40
0
 40
0
 40
0
 40
1
 40
1
 40
1
 40
1
 10
1208.418459
 20
2570.303019
 30
0.0
 10
1197.301208
 20
2576.065554
 30
0.0
 10
1197.301208
 20
2576.065554
 30
0.0
 10
1199.065345
 20
2551.839605
 30
0.0
  0
SPLINE
  5
159
100
AcDbEntity
  8
Layer_1
 62
7
100
AcDbSpline
 70
8
 71
3
 72
8
 73
4
 74
0
 40
0
 40
0
 40
0
 40
0
 40
1
 40
1
 40
1
 40
1
 10
1199.065345
 20
2551.839605
 30
0.0
 10
1200.035046
 20
2538.516808
 30
0.0
 10
1198.681818
 20
2519.694246
 30
0.0
 10
1196.057114
 20
2510.013107
 30
0.0
  0
SPLINE
  5
15a
100
AcDbEntity
  8
Layer_1
 62
7
100
AcDbSpline
 70
8
 71
3
 72
8
 73
4
 74
0
 40
0
 40
0
 40
0
 40
0
 40
1
 40
1
 40
1
 40
1
 10
1196.057114
 20
2510.013107
 30
0.0
 10
1191.465114
 20
2493.073312
 30
0.0
 10
1170.686567
 20
2461.131195
 30
0.0
 10
1164.049177
 20
2460.804929
 30
0.0
  0
SPLINE
  5
15b
100
AcDbEntity
  8
Layer_1
 62
7
100
AcDbSpline
 70
8
 71
3
 72
8
 73
4
 74
0
 40
0
 40
0
 40
0
 40
0
 40
1
 40
1
 40
1
 40
1
 10
1164.049177
 20
2460.804929
 30
0.0
 10
1158.550037
 20
2460.532803
 30
0.0
 10
1140.661544
 20
2492.012874
 30
0.0
 10
1132.669000
 20
2516.019705
 30
0.0
  0
SPLINE
  5
15c
100
AcDbEntity
  8
Layer_1
 62
7
100
AcDbSpline
 70
8
 71
3
 72
8
 73
4
 74
0
 40
0
 40
0
 40
0
 40
0
 40
1
 40
1
 40
1
 40
1
 10
1132.669000
 20
2516.019705
 30
0.0
 10
1125.696329
 20
2536.965694
 30
0.0
 10
1125.704011
 20
2547.726546
 30
0.0
 10
1132.701881
 20
2565.847535
 30
0.0
  0
SPLINE
  5
15d
100
AcDbEntity
  8
Layer_1
 62
7
100
AcDbSpline
 70
8
 71
3
 72
8
 73
4
 74
0
 40
0
 40
0
 40
0
 40
0
 40
1
 40
1
 40
1
 40
1
 10
1132.701881
 20
2565.847535
 30
0.0
 10
1134.928263
 20
2571.610070
 30
0.0
 10
1133.107093
 20
2571.621125
 30
0.0
 10
1116.498610
 20
2565.847535
 30
0.0
  0
SPLINE
  5
15e
100
AcDbEntity
  8
Layer_1
 62
7
100
AcDbSpline
 70
8
 71
3
 72
8
 73
4
 74
0
 40
0
 40
0
 40
0
 40
0
 40
1
 40
1
 40
1
 40
1
 10
1116.498610
 20
2565.847535
 30
0.0
 10
1103.427471
 20
2561.375610
 30
0.0
 10
1090.201987
 20
2560.317724
 30
0.0
 10
1072.624965
 20
2562.345340
 30
0.0
  0
SPLINE
  5
15f
100
AcDbEntity
  8
Layer_1
 62
7
100
AcDbSpline
 70
8
 71
3
 72
8
 73
4
 74
0
 40
0
 40
0
 40
0
 40
0
 40
1
 40
1
 40
1
 40
1
 10
1072.624965
 20
2562.345340
 30
0.0
 10
1047.611383
 20
2565.227883
 30
0.0
 10
1047.464181
 20
2565.329080
 30
0.0
 10
1047.464181
 20
2579.632946
 30
0.0
  0
SPLINE
  5
160
100
AcDbEntity
  8
Layer_1
 62
7
100
AcDbSpline
 70
8
 71
3
 72
8
 73
4
 74
0
 40
0
 40
0
 40
0
 40
0
 40
1
 40
1
 40
1
 40
1
 10
1047.464181
 20
2579.632946
 30
0.0
 10
1047.464181
 20
2597.060866
 30
0.0
 10
1063.032210
 20
2616.806953
 30
0.0
 10
1090.940580
 20
2634.771470
 30
0.0
  0
SPLINE
  5
161
100
AcDbEntity
  8
Layer_1
 62
7
100
AcDbSpline
 70
8
 71
3
 72
8
 73
4
 74
0
 40
0
 40
0
 40
0
 40
0
 40
1
 40
1
 40
1
 40
1
 10
1090.940580
 20
2634.771470
 30
0.0
 10
1101.781227
 20
2641.747797
 30
0.0
 10
1105.734980
 20
2645.795093
 30
0.0
 10
1099.738587
 20
2643.778532
 30
0.0
  0
SPLINE
  5
162
100
AcDbEntity
  8
Layer_1
 62
7
100
AcDbSpline
 70
8
 71
3
 72
8
 73
4
 74
0
 40
0
 40
0
 40
0
 40
0
 40
1
 40
1
 40
1
 40
1
 10
1099.738587
 20
2643.778532
 30
0.0
 10
1093.748657
 20
2641.750348
 30
0.0
 10
1074.449989
 20
2640.111928
 30
0.0
 10
1056.852643
 20
2640.111928
 30
0.0
  0
SPLINE
  5
163
100
AcDbEntity
  8
Layer_1
 62
7
100
AcDbSpline
 70
8
 71
3
 72
8
 73
4
 74
0
 40
0
 40
0
 40
0
 40
0
 40
1
 40
1
 40
1
 40
1
 10
1056.852643
 20
2640.111928
 30
0.0
 10
1024.857349
 20
2640.111928
 30
0.0
 10
1024.857349
 20
2640.111928
 30
0.0
 10
1011.869804
 20
2657.887658
 30
0.0
  0
SPLINE
  5
164
100
AcDbEntity
  8
Layer_1
 62
7
100
AcDbSpline
 70
8
 71
3
 72
8
 73
4
 74
0
 40
0
 40
0
 40
0
 40
0
 40
1
 40
1
 40
1
 40
1
 10
1011.869804
 20
2657.887658
 30
0.0
 10
995.544529
 20
2680.231407
 30
0.0
 10
991.933456
 20
2704.038396
 30
0.0
 10
1001.441200
 20
2726.638680
 30
0.0
  0
SPLINE
  5
165
100
AcDbEntity
  8
Layer_1
 62
7
100
AcDbSpline
 70
8
 71
3
 72
8
 73
4
 74
0
 40
0
 40
0
 40
0
 40
0
 40
1
 40
1
 40
1
 40
1
 10
1001.441200
 20
2726.638680
 30
0.0
 10
1008.589079
 20
2743.631200
 30
0.0
 10
1008.589079
 20
2743.631200
 30
0.0
 10
1020.403254
 20
2729.984687
 30
0.0
  0
SPLINE
  5
166
100
AcDbEntity
  8
Layer_1
 62
7
100
AcDbSpline
 70
8
 71
3
 72
8
 73
4
 74
0
 40
0
 40
0
 40
0
 40
0
 40
1
 40
1
 40
1
 40
1
 10
1020.403254
 20
2729.984687
 30
0.0
 10
1049.284528
 20
2696.622984
 30
0.0
 10
1089.291841
 20
2706.413823
 30
0.0
 10
1088.231148
 20
2746.582341
 30
0.0
  0
SPLINE
  5
167
100
AcDbEntity
  8
Layer_1
 62
7
100
AcDbSpline
 70
8
 71
3
 72
8
 73
4
 74
0
 40
0
 40
0
 40
0
 40
0
 40
1
 40
1
 40
1
 40
1
 10
1088.231148
 20
2746.582341
 30
0.0
 10
1087.631877
 20
2769.292893
 30
0.0
 10
1076.658541
 20
2784.196568
 30
0.0
 10
1052.829271
 20
2794.666869
 30
0.0
  0
SPLINE
  5
168
100
AcDbEntity
  8
Layer_1
 62
7
100
AcDbSpline
 70
8
 71
3
 72
8
 73
4
 74
0
 40
0
 40
0
 40
0
 40
0
 40
1
 40
1
 40
1
 40
1
 10
1052.829271
 20
2794.666869
 30
0.0
 10
1035.924739
 20
2802.093054
 30
0.0
 10
1026.719904
 20
2803.125996
 30
0.0
 10
993.956962
 20
2801.271292
 30
0.0
  0
SPLINE
  5
169
100
AcDbEntity
  8
Layer_1
 62
7
100
AcDbSpline
 70
8
 71
3
 72
8
 73
4
 74
0
 40
0
 40
0
 40
0
 40
0
 40
1
 40
1
 40
1
 40
1
 10
993.956962
 20
2801.271292
 30
0.0
 10
960.180750
 20
2799.352809
 30
0.0
 10
952.816588
 20
2797.453885
 30
0.0
 10
937.424760
 20
2786.655049
 30
0.0
  0
SPLINE
  5
16a
100
AcDbEntity
  8
Layer_1
 62
7
100
AcDbSpline
 70
8
 71
3
 72
8
 73
4
 74
0
 40
0
 40
0
 40
0
 40
0
 40
1
 40
1
 40
1
 40
1
 10
937.424760
 20
2786.655049
 30
0.0
 10
906.257407
 20
2764.785251
 30
0.0
 10
883.653806
 20
2723.597681
 30
0.0
 10
873.658080
 20
2670.457009
 30
0.0
  0
SPLINE
  5
16b
100
AcDbEntity
  8
Layer_1
 62
7
100
AcDbSpline
 70
8
 71
3
 72
8
 73
4
 74
0
 40
0
 40
0
 40
0
 40
0
 40
1
 40
1
 40
1
 40
1
 10
873.658080
 20
2670.457009
 30
0.0
 10
870.121841
 20
2651.656557
 30
0.0
 10
870.121841
 20
2651.656557
 30
0.0
 10
885.826726
 20
2648.793289
 30
0.0
  0
SPLINE
  5
16c
100
AcDbEntity
  8
Layer_1
 62
7
100
AcDbSpline
 70
8
 71
3
 72
8
 73
4
 74
0
 40
0
 40
0
 40
0
 40
0
 40
1
 40
1
 40
1
 40
1
 10
885.826726
 20
2648.793289
 30
0.0
 10
912.995653
 20
2643.838910
 30
0.0
 10
954.893244
 20
2620.423667
 30
0.0
 10
977.619329
 20
2597.493715
 30
0.0
  0
SPLINE
  5
16d
100
AcDbEntity
  8
Layer_1
 62
7
100
AcDbSpline
 70
8
 71
3
 72
8
 73
4
 74
0
 40
0
 40
0
 40
0
 40
0
 40
1
 40
1
 40
1
 40
1
 10
977.619329
 20
2597.493715
 30
0.0
 10
1002.706950
 20
2572.182667
 30
0.0
 10
1025.806442
 20
2530.970151
 30
0.0
 10
1036.620245
 20
2492.231991
 30
0.0
  0
SPLINE
  5
16e
100
AcDbEntity
  8
Layer_1
 62
7
100
AcDbSpline
 70
8
 71
3
 72
8
 73
4
 74
0
 40
0
 40
0
 40
0
 40
0
 40
1
 40
1
 40
1
 40
1
 10
1036.620245
 20
2492.231991
 30
0.0
 10
1043.971510
 20
2465.896222
 30
0.0
 10
1044.435937
 20
2465.353672
 30
0.0
 10
1067.642862
 20
2455.998800
 30
0.0
  0
SPLINE
  5
16f
100
AcDbEntity
  8
Layer_1
 62
7
100
AcDbSpline
 70
8
 71
3
 72
8
 73
4
 74
0
 40
0
 40
0
 40
0
 40
0
 40
1
 40
1
 40
1
 40
1
 10
1067.642862
 20
2455.998800
 30
0.0
 10
1092.331650
 20
2446.046103
 30
0.0
 10
1143.996553
 20
2411.938891
 30
0.0
 10
1158.056526
 20
2396.311532
 30
0.0
  0
SPLINE
  5
170
100
AcDbEntity
  8
Layer_1
 62
7
100
AcDbSpline
 70
8
 71
3
 72
8
 73
4
 74
0
 40
0
 40
0
 40
0
 40
0
 40
1
 40
1
 40
1
 40
1
 10
1158.056526
 20
2396.311532
 30
0.0
 10
1166.278251
 20
2387.173227
 30
0.0
 10
1166.278251
 20
2387.173227
 30
0.0
 10
1191.798467
 20
2410.640060
 30
0.0
  0
SPLINE
  5
171
100
AcDbEntity
  8
Layer_1
 62
7
100
AcDbSpline
 70
8
 71
3
 72
8
 73
4
 74
0
 40
0
 40
0
 40
0
 40
0
 40
1
 40
1
 40
1
 40
1
 10
1191.798467
 20
2410.640060
 30
0.0
 10
1205.834318
 20
2423.546449
 30
0.0
 10
1231.956299
 20
2441.292132
 30
0.0
 10
1249.847229
 20
2450.074124
 30
0.0
  0
LWPOLYLINE
  5
172
100
AcDbEntity
  8
Layer_1
 62
7
100
AcDbPolyline
 90
1
 70
1
 10
973.410940
 20
2499.932001
 30
0.0
  0
SPLINE
  5
173
100
AcDbEntity
  8
Layer_1
 62
7
100
AcDbSpline
 70
8
 71
3
 72
8
 73
4
 74
0
 40
0
 40
0
 40
0
 40
0
 40
1
 40
1
 40
1
 40
1
 10
1188.171236
 20
3136.388411
 30
0.0
 10
1197.036113
 20
3147.497073
 30
0.0
 10
1204.246212
 20
3160.154014
 30
0.0
 10
1204.193573
 20
3164.510852
 30
0.0
  0
SPLINE
  5
174
100
AcDbEntity
  8
Layer_1
 62
7
100
AcDbSpline
 70
8
 71
3
 72
8
 73
4
 74
0
 40
0
 40
0
 40
0
 40
0
 40
1
 40
1
 40
1
 40
1
 10
1204.193573
 20
3164.510852
 30
0.0
 10
1204.045322
 20
3176.266095
 30
0.0
 10
1189.368672
 20
3205.926328
 30
0.0
 10
1179.283910
 20
3214.826241
 30
0.0
  0
SPLINE
  5
175
100
AcDbEntity
  8
Layer_1
 62
7
100
AcDbSpline
 70
8
 71
3
 72
8
 73
4
 74
0
 40
0
 40
0
 40
0
 40
0
 40
1
 40
1
 40
1
 40
1
 10
1179.283910
 20
3214.826241
 30
0.0
 10
1170.674264
 20
3222.427322
 30
0.0
 10
1170.062890
 20
3222.131669
 30
0.0
 10
1152.559625
 20
3201.848702
 30
0.0
  0
SPLINE
  5
176
100
AcDbEntity
  8
Layer_1
 62
7
100
AcDbSpline
 70
8
 71
3
 72
8
 73
4
 74
0
 40
0
 40
0
 40
0
 40
0
 40
1
 40
1
 40
1
 40
1
 10
1152.559625
 20
3201.848702
 30
0.0
 10
1131.493504
 20
3177.436234
 30
0.0
 10
1128.297421
 20
3155.637869
 30
0.0
 10
1143.748465
 20
3141.750695
 30
0.0
  0
SPLINE
  5
177
100
AcDbEntity
  8
Layer_1
 62
7
100
AcDbSpline
 70
8
 71
3
 72
8
 73
4
 74
0
 40
0
 40
0
 40
0
 40
0
 40
1
 40
1
 40
1
 40
1
 10
1143.748465
 20
3141.750695
 30
0.0
 10
1148.785673
 20
3137.221227
 30
0.0
 10
1155.813477
 20
3127.934954
 30
0.0
 10
1159.365902
 20
3121.111414
 30
0.0
  0
SPLINE
  5
178
100
AcDbEntity
  8
Layer_1
 62
7
100
AcDbSpline
 70
8
 71
3
 72
8
 73
4
 74
0
 40
0
 40
0
 40
0
 40
0
 40
1
 40
1
 40
1
 40
1
 10
1159.365902
 20
3121.111414
 30
0.0
 10
1162.918327
 20
3114.288440
 30
0.0
 10
1167.226268
 20
3110.389396
 30
0.0
 10
1168.939438
 20
3112.447060
 30
0.0
  0
SPLINE
  5
179
100
AcDbEntity
  8
Layer_1
 62
7
100
AcDbSpline
 70
8
 71
3
 72
8
 73
4
 74
0
 40
0
 40
0
 40
0
 40
0
 40
1
 40
1
 40
1
 40
1
 10
1168.939438
 20
3112.447060
 30
0.0
 10
1170.652041
 20
3114.502456
 30
0.0
 10
1179.306644
 20
3125.279465
 30
0.0
 10
1188.171236
 20
3136.388411
 30
0.0
  0
LWPOLYLINE
  5
17a
100
AcDbEntity
  8
Layer_1
 62
7
100
AcDbPolyline
 90
2
 70
0
 10
1249.847229
 20
2450.074124
 30
0.0
 10
1249.849185
 20
2450.224926
 30
0.0
  0
SPLINE
  5
17b
100
AcDbEntity
  8
Layer_1
 62
7
100
AcDbSpline
 70
8
 71
3
 72
8
 73
4
 74
0
 40
0
 40
0
 40
0
 40
0
 40
1
 40
1
 40
1
 40
1
 10
1154.300744
 20
3113.789828
 30
0.0
 10
1150.038498
 20
3123.177865
 30
0.0
 10
1141.899601
 20
3135.199280
 30
0.0
 10
1136.214310
 20
3140.504305
 30
0.0
  0
SPLINE
  5
17c
100
AcDbEntity
  8
Layer_1
 62
7
100
AcDbSpline
 70
8
 71
3
 72
8
 73
4
 74
0
 40
0
 40
0
 40
0
 40
0
 40
1
 40
1
 40
1
 40
1
 10
1136.214310
 20
3140.504305
 30
0.0
 10
1130.529273
 20
3145.809046
 30
0.0
 10
1125.877831
 20
3155.035225
 30
0.0
 10
1125.877831
 20
3161.008941
 30
0.0
  0
SPLINE
  5
17d
100
AcDbEntity
  8
Layer_1
 62
7
100
AcDbSpline
 70
8
 71
3
 72
8
 73
4
 74
0
 40
0
 40
0
 40
0
 40
0
 40
1
 40
1
 40
1
 40
1
 10
1125.877831
 20
3161.008941
 30
0.0
 10
1125.877831
 20
3178.288326
 30
0.0
 10
1142.371710
 20
3207.479710
 30
0.0
 10
1159.441814
 20
3220.411044
 30
0.0
  0
SPLINE
  5
17e
100
AcDbEntity
  8
Layer_1
 62
7
100
AcDbSpline
 70
8
 71
3
 72
8
 73
4
 74
0
 40
0
 40
0
 40
0
 40
0
 40
1
 40
1
 40
1
 40
1
 10
1159.441814
 20
3220.411044
 30
0.0
 10
1175.142873
 20
3232.306035
 30
0.0
 10
1175.142873
 20
3232.306035
 30
0.0
 10
1187.387119
 20
3218.684183
 30
0.0
  0
SPLINE
  5
17f
100
AcDbEntity
  8
Layer_1
 62
7
100
AcDbSpline
 70
8
 71
3
 72
8
 73
4
 74
0
 40
0
 40
0
 40
0
 40
0
 40
1
 40
1
 40
1
 40
1
 10
1187.387119
 20
3218.684183
 30
0.0
 10
1194.121623
 20
3211.198188
 30
0.0
 10
1202.777048
 20
3194.326990
 30
0.0
 10
1206.621667
 20
3181.190145
 30
0.0
  0
SPLINE
  5
180
100
AcDbEntity
  8
Layer_1
 62
7
100
AcDbSpline
 70
8
 71
3
 72
8
 73
4
 74
0
 40
0
 40
0
 40
0
 40
0
 40
1
 40
1
 40
1
 40
1
 10
1206.621667
 20
3181.190145
 30
0.0
 10
1213.611969
 20
3157.309455
 30
0.0
 10
1213.611969
 20
3157.309455
 30
0.0
 10
1190.926674
 20
3127.008594
 30
0.0
  0
SPLINE
  5
181
100
AcDbEntity
  8
Layer_1
 62
7
100
AcDbSpline
 70
8
 71
3
 72
8
 73
4
 74
0
 40
0
 40
0
 40
0
 40
0
 40
1
 40
1
 40
1
 40
1
 10
1190.926674
 20
3127.008594
 30
0.0
 10
1178.450158
 20
3110.345743
 30
0.0
 10
1166.848751
 20
3096.710568
 30
0.0
 10
1165.146040
 20
3096.710568
 30
0.0
  0
SPLINE
  5
182
100
AcDbEntity
  8
Layer_1
 62
7
100
AcDbSpline
 70
8
 71
3
 72
8
 73
4
 74
0
 40
0
 40
0
 40
0
 40
0
 40
1
 40
1
 40
1
 40
1
 10
1165.146040
 20
3096.710568
 30
0.0
 10
1163.443585
 20
3096.710568
 30
0.0
 10
1158.563161
 20
3104.391019
 30
0.0
 10
1154.300744
 20
3113.778773
 30
0.0
  0
LWPOLYLINE
  5
183
100
AcDbEntity
  8
Layer_1
 62
7
100
AcDbPolyline
 90
1
 70
1
 10
1188.171236
 20
3136.388411
 30
0.0
  0
SPLINE
  5
184
100
AcDbEntity
  8
Layer_1
 62
7
100
AcDbSpline
 70
8
 71
3
 72
8
 73
4
 74
0
 40
0
 40
0
 40
0
 40
0
 40
1
 40
1
 40
1
 40
1
 10
1911.187932
 20
2348.851475
 30
0.0
 10
1937.386052
 20
2362.777200
 30
0.0
 10
1944.572879
 20
2395.075914
 30
0.0
 10
1925.444204
 20
2412.925345
 30
0.0
  0
SPLINE
  5
185
100
AcDbEntity
  8
Layer_1
 62
7
100
AcDbSpline
 70
8
 71
3
 72
8
 73
4
 74
0
 40
0
 40
0
 40
0
 40
0
 40
1
 40
1
 40
1
 40
1
 10
1925.444204
 20
2412.925345
 30
0.0
 10
1917.033324
 20
2420.773323
 30
0.0
 10
1908.200479
 20
2423.360213
 30
0.0
 10
1883.950974
 20
2425.083673
 30
0.0
  0
SPLINE
  5
186
100
AcDbEntity
  8
Layer_1
 62
7
100
AcDbSpline
 70
8
 71
3
 72
8
 73
4
 74
0
 40
0
 40
0
 40
0
 40
0
 40
1
 40
1
 40
1
 40
1
 10
1883.950974
 20
2425.083673
 30
0.0
 10
1867.006672
 20
2426.289245
 30
0.0
 10
1852.132448
 20
2428.897962
 30
0.0
 10
1850.896575
 20
2430.884476
 30
0.0
  0
SPLINE
  5
187
100
AcDbEntity
  8
Layer_1
 62
7
100
AcDbSpline
 70
8
 71
3
 72
8
 73
4
 74
0
 40
0
 40
0
 40
0
 40
0
 40
1
 40
1
 40
1
 40
1
 10
1850.896575
 20
2430.884476
 30
0.0
 10
1847.718379
 20
2435.992210
 30
0.0
 10
1859.829992
 20
2457.867393
 30
0.0
 10
1875.901142
 20
2476.048477
 30
0.0
  0
SPLINE
  5
188
100
AcDbEntity
  8
Layer_1
 62
7
100
AcDbSpline
 70
8
 71
3
 72
8
 73
4
 74
0
 40
0
 40
0
 40
0
 40
0
 40
1
 40
1
 40
1
 40
1
 10
1875.901142
 20
2476.048477
 30
0.0
 10
1896.539601
 20
2499.394837
 30
0.0
 10
1920.001785
 20
2509.695344
 30
0.0
 10
1946.699736
 20
2507.135950
 30
0.0
  0
SPLINE
  5
189
100
AcDbEntity
  8
Layer_1
 62
7
100
AcDbSpline
 70
8
 71
3
 72
8
 73
4
 74
0
 40
0
 40
0
 40
0
 40
0
 40
1
 40
1
 40
1
 40
1
 10
1946.699736
 20
2507.135950
 30
0.0
 10
1966.343294
 20
2505.245530
 30
0.0
 10
1970.369727
 20
2506.396109
 30
0.0
 10
1982.901859
 20
2517.293874
 30
0.0
  0
SPLINE
  5
18a
100
AcDbEntity
  8
Layer_1
 62
7
100
AcDbSpline
 70
8
 71
3
 72
8
 73
4
 74
0
 40
0
 40
0
 40
0
 40
0
 40
1
 40
1
 40
1
 40
1
 10
1982.901859
 20
2517.293874
 30
0.0
 10
2008.456629
 20
2539.544364
 30
0.0
 10
2052.162181
 20
2544.314776
 30
0.0
 10
2084.350570
 20
2528.364552
 30
0.0
  0
SPLINE
  5
18b
100
AcDbEntity
  8
Layer_1
 62
7
100
AcDbSpline
 70
8
 71
3
 72
8
 73
4
 74
0
 40
0
 40
0
 40
0
 40
0
 40
1
 40
1
 40
1
 40
1
 10
2084.350570
 20
2528.364552
 30
0.0
 10
2092.213941
 20
2524.467776
 30
0.0
 10
2100.044741
 20
2521.280792
 30
0.0
 10
2101.752412
 20
2521.280792
 30
0.0
  0
SPLINE
  5
18c
100
AcDbEntity
  8
Layer_1
 62
7
100
AcDbSpline
 70
8
 71
3
 72
8
 73
4
 74
0
 40
0
 40
0
 40
0
 40
0
 40
1
 40
1
 40
1
 40
1
 10
2101.752412
 20
2521.280792
 30
0.0
 10
2105.416946
 20
2521.280792
 30
0.0
 10
2089.173338
 20
2585.001183
 30
0.0
 10
2075.282252
 20
2625.120662
 30
0.0
  0
SPLINE
  5
18d
100
AcDbEntity
  8
Layer_1
 62
7
100
AcDbSpline
 70
8
 71
3
 72
8
 73
4
 74
0
 40
0
 40
0
 40
0
 40
0
 40
1
 40
1
 40
1
 40
1
 10
2075.282252
 20
2625.120662
 30
0.0
 10
2060.072237
 20
2669.045643
 30
0.0
 10
2023.893358
 20
2750.114017
 30
0.0
 10
2006.737988
 20
2778.713811
 30
0.0
  0
SPLINE
  5
18e
100
AcDbEntity
  8
Layer_1
 62
7
100
AcDbSpline
 70
8
 71
3
 72
8
 73
4
 74
0
 40
0
 40
0
 40
0
 40
0
 40
1
 40
1
 40
1
 40
1
 10
2006.737988
 20
2778.713811
 30
0.0
 10
1970.756570
 20
2838.699283
 30
0.0
 10
1907.433709
 20
2916.183824
 30
0.0
 10
1851.981107
 20
2968.085476
 30
0.0
  0
SPLINE
  5
18f
100
AcDbEntity
  8
Layer_1
 62
7
100
AcDbSpline
 70
8
 71
3
 72
8
 73
4
 74
0
 40
0
 40
0
 40
0
 40
0
 40
1
 40
1
 40
1
 40
1
 10
1851.981107
 20
2968.085476
 30
0.0
 10
1824.467857
 20
2993.835325
 30
0.0
 10
1709.301909
 20
3083.740966
 30
0.0
 10
1703.829074
 20
3083.740966
 30
0.0
  0
SPLINE
  5
190
100
AcDbEntity
  8
Layer_1
 62
7
100
AcDbSpline
 70
8
 71
3
 72
8
 73
4
 74
0
 40
0
 40
0
 40
0
 40
0
 40
1
 40
1
 40
1
 40
1
 10
1703.829074
 20
3083.740966
 30
0.0
 10
1702.697940
 20
3083.740966
 30
0.0
 10
1691.288126
 20
3090.747340
 30
0.0
 10
1678.475563
 20
3099.310498
 30
0.0
  0
SPLINE
  5
191
100
AcDbEntity
  8
Layer_1
 62
7
100
AcDbSpline
 70
8
 71
3
 72
8
 73
4
 74
0
 40
0
 40
0
 40
0
 40
0
 40
1
 40
1
 40
1
 40
1
 10
1678.475563
 20
3099.310498
 30
0.0
 10
1615.928797
 20
3141.115169
 30
0.0
 10
1486.890075
 20
3193.891306
 30
0.0
 10
1385.071273
 20
3219.311771
 30
0.0
  0
SPLINE
  5
192
100
AcDbEntity
  8
Layer_1
 62
7
100
AcDbSpline
 70
8
 71
3
 72
8
 73
4
 74
0
 40
0
 40
0
 40
0
 40
0
 40
1
 40
1
 40
1
 40
1
 10
1385.071273
 20
3219.311771
 30
0.0
 10
1288.549872
 20
3243.406193
 30
0.0
 10
1268.510711
 20
3245.861556
 30
0.0
 10
1173.795711
 20
3245.182093
 30
0.0
  0
SPLINE
  5
193
100
AcDbEntity
  8
Layer_1
 62
7
100
AcDbSpline
 70
8
 71
3
 72
8
 73
4
 74
0
 40
0
 40
0
 40
0
 40
0
 40
1
 40
1
 40
1
 40
1
 10
1173.795711
 20
3245.182093
 30
0.0
 10
1049.852845
 20
3244.305340
 30
0.0
 10
972.821222
 20
3232.810033
 30
0.0
 10
868.862184
 20
3199.711101
 30
0.0
  0
SPLINE
  5
194
100
AcDbEntity
  8
Layer_1
 62
7
100
AcDbSpline
 70
8
 71
3
 72
8
 73
4
 74
0
 40
0
 40
0
 40
0
 40
0
 40
1
 40
1
 40
1
 40
1
 10
868.862184
 20
3199.711101
 30
0.0
 10
739.390556
 20
3158.490932
 30
0.0
 10
638.143671
 20
3107.038004
 30
0.0
 10
566.792946
 20
3046.202991
 30
0.0
  0
SPLINE
  5
195
100
AcDbEntity
  8
Layer_1
 62
7
100
AcDbSpline
 70
8
 71
3
 72
8
 73
4
 74
0
 40
0
 40
0
 40
0
 40
0
 40
1
 40
1
 40
1
 40
1
 10
566.792946
 20
3046.202991
 30
0.0
 10
476.251014
 20
2969.006449
 30
0.0
 10
410.759655
 20
2901.586573
 30
0.0
 10
365.212525
 20
2838.688228
 30
0.0
  0
SPLINE
  5
196
100
AcDbEntity
  8
Layer_1
 62
7
100
AcDbSpline
 70
8
 71
3
 72
8
 73
4
 74
0
 40
0
 40
0
 40
0
 40
0
 40
1
 40
1
 40
1
 40
1
 10
365.212525
 20
2838.688228
 30
0.0
 10
330.447393
 20
2790.683069
 30
0.0
 10
264.877061
 20
2659.860566
 30
0.0
 10
244.164646
 20
2597.181338
 30
0.0
  0
SPLINE
  5
197
100
AcDbEntity
  8
Layer_1
 62
7
100
AcDbSpline
 70
8
 71
3
 72
8
 73
4
 74
0
 40
0
 40
0
 40
0
 40
0
 40
1
 40
1
 40
1
 40
1
 10
244.164646
 20
2597.181338
 30
0.0
 10
223.765175
 20
2535.453131
 30
0.0
 10
223.716986
 20
2526.275991
 30
0.0
 10
243.865308
 20
2540.199449
 30
0.0
  0
SPLINE
  5
198
100
AcDbEntity
  8
Layer_1
 62
7
100
AcDbSpline
 70
8
 71
3
 72
8
 73
4
 74
0
 40
0
 40
0
 40
0
 40
0
 40
1
 40
1
 40
1
 40
1
 10
243.865308
 20
2540.199449
 30
0.0
 10
267.505621
 20
2556.533482
 30
0.0
 10
320.204939
 20
2553.773962
 30
0.0
 10
342.643706
 20
2535.025384
 30
0.0
  0
SPLINE
  5
199
100
AcDbEntity
  8
Layer_1
 62
7
100
AcDbSpline
 70
8
 71
3
 72
8
 73
4
 74
0
 40
0
 40
0
 40
0
 40
0
 40
1
 40
1
 40
1
 40
1
 10
342.643706
 20
2535.025384
 30
0.0
 10
354.654349
 20
2524.991333
 30
0.0
 10
360.413200
 20
2523.439936
 30
0.0
 10
385.762260
 20
2523.423779
 30
0.0
  0
SPLINE
  5
19a
100
AcDbEntity
  8
Layer_1
 62
7
100
AcDbSpline
 70
8
 71
3
 72
8
 73
4
 74
0
 40
0
 40
0
 40
0
 40
0
 40
1
 40
1
 40
1
 40
1
 10
385.762260
 20
2523.423779
 30
0.0
 10
411.548110
 20
2523.395432
 30
0.0
 10
417.262229
 20
2521.806901
 30
0.0
 10
433.932366
 20
2509.914462
 30
0.0
  0
SPLINE
  5
19b
100
AcDbEntity
  8
Layer_1
 62
7
100
AcDbSpline
 70
8
 71
3
 72
8
 73
4
 74
0
 40
0
 40
0
 40
0
 40
0
 40
1
 40
1
 40
1
 40
1
 10
433.932366
 20
2509.914462
 30
0.0
 10
457.880860
 20
2492.834919
 30
0.0
 10
476.264734
 20
2467.367682
 30
0.0
 10
479.663890
 20
2446.561157
 30
0.0
  0
SPLINE
  5
19c
100
AcDbEntity
  8
Layer_1
 62
7
100
AcDbSpline
 70
8
 71
3
 72
8
 73
4
 74
0
 40
0
 40
0
 40
0
 40
0
 40
1
 40
1
 40
1
 40
1
 10
479.663890
 20
2446.561157
 30
0.0
 10
482.306396
 20
2430.388698
 30
0.0
 10
482.306396
 20
2430.388698
 30
0.0
 10
466.217728
 20
2437.063986
 30
0.0
  0
SPLINE
  5
19d
100
AcDbEntity
  8
Layer_1
 62
7
100
AcDbSpline
 70
8
 71
3
 72
8
 73
4
 74
0
 40
0
 40
0
 40
0
 40
0
 40
1
 40
1
 40
1
 40
1
 10
466.217728
 20
2437.063986
 30
0.0
 10
451.012334
 20
2443.374174
 30
0.0
 10
449.042601
 20
2443.201828
 30
0.0
 10
430.343459
 20
2433.929161
 30
0.0
  0
SPLINE
  5
19e
100
AcDbEntity
  8
Layer_1
 62
7
100
AcDbSpline
 70
8
 71
3
 72
8
 73
4
 74
0
 40
0
 40
0
 40
0
 40
0
 40
1
 40
1
 40
1
 40
1
 10
430.343459
 20
2433.929161
 30
0.0
 10
394.224108
 20
2416.010848
 30
0.0
 10
388.100184
 20
2392.187418
 30
0.0
 10
413.204531
 20
2367.254511
 30
0.0
  0
SPLINE
  5
19f
100
AcDbEntity
  8
Layer_1
 62
7
100
AcDbSpline
 70
8
 71
3
 72
8
 73
4
 74
0
 40
0
 40
0
 40
0
 40
0
 40
1
 40
1
 40
1
 40
1
 10
413.204531
 20
2367.254511
 30
0.0
 10
430.781269
 20
2349.796827
 30
0.0
 10
446.813754
 20
2348.207445
 30
0.0
 10
472.753950
 20
2361.349677
 30
0.0
  0
SPLINE
  5
1a0
100
AcDbEntity
  8
Layer_1
 62
7
100
AcDbSpline
 70
8
 71
3
 72
8
 73
4
 74
0
 40
0
 40
0
 40
0
 40
0
 40
1
 40
1
 40
1
 40
1
 10
472.753950
 20
2361.349677
 30
0.0
 10
486.965548
 20
2368.550791
 30
0.0
 10
492.925261
 20
2375.853384
 30
0.0
 10
505.417113
 20
2401.372495
 30
0.0
  0
SPLINE
  5
1a1
100
AcDbEntity
  8
Layer_1
 62
7
100
AcDbSpline
 70
8
 71
3
 72
8
 73
4
 74
0
 40
0
 40
0
 40
0
 40
0
 40
1
 40
1
 40
1
 40
1
 10
505.417113
 20
2401.372495
 30
0.0
 10
522.693125
 20
2436.663736
 30
0.0
 10
539.232273
 20
2458.623675
 30
0.0
 10
569.321443
 20
2486.231063
 30
0.0
  0
SPLINE
  5
1a2
100
AcDbEntity
  8
Layer_1
 62
7
100
AcDbSpline
 70
8
 71
3
 72
8
 73
4
 74
0
 40
0
 40
0
 40
0
 40
0
 40
1
 40
1
 40
1
 40
1
 10
569.321443
 20
2486.231063
 30
0.0
 10
580.730973
 20
2496.698246
 30
0.0
 10
590.065946
 20
2506.919667
 30
0.0
 10
590.065946
 20
2508.944449
 30
0.0
  0
SPLINE
  5
1a3
100
AcDbEntity
  8
Layer_1
 62
7
100
AcDbSpline
 70
8
 71
3
 72
8
 73
4
 74
0
 40
0
 40
0
 40
0
 40
0
 40
1
 40
1
 40
1
 40
1
 10
590.065946
 20
2508.944449
 30
0.0
 10
590.065946
 20
2510.972349
 30
0.0
 10
581.368909
 20
2512.627210
 30
0.0
 10
570.739073
 20
2512.627210
 30
0.0
  0
SPLINE
  5
1a4
100
AcDbEntity
  8
Layer_1
 62
7
100
AcDbSpline
 70
8
 71
3
 72
8
 73
4
 74
0
 40
0
 40
0
 40
0
 40
0
 40
1
 40
1
 40
1
 40
1
 10
570.739073
 20
2512.627210
 30
0.0
 10
543.925129
 20
2512.627210
 30
0.0
 10
487.305223
 20
2526.687297
 30
0.0
 10
461.400658
 20
2539.777371
 30
0.0
  0
SPLINE
  5
1a5
100
AcDbEntity
  8
Layer_1
 62
7
100
AcDbSpline
 70
8
 71
3
 72
8
 73
4
 74
0
 40
0
 40
0
 40
0
 40
0
 40
1
 40
1
 40
1
 40
1
 10
461.400658
 20
2539.777371
 30
0.0
 10
432.525705
 20
2554.368386
 30
0.0
 10
410.093204
 20
2577.400101
 30
0.0
 10
387.425796
 20
2615.719019
 30
0.0
  0
SPLINE
  5
1a6
100
AcDbEntity
  8
Layer_1
 62
7
100
AcDbSpline
 70
8
 71
3
 72
8
 73
4
 74
0
 40
0
 40
0
 40
0
 40
0
 40
1
 40
1
 40
1
 40
1
 10
387.425796
 20
2615.719019
 30
0.0
 10
352.518733
 20
2674.731359
 30
0.0
 10
345.820201
 20
2738.512411
 30
0.0
 10
369.485174
 20
2786.550734
 30
0.0
  0
SPLINE
  5
1a7
100
AcDbEntity
  8
Layer_1
 62
7
100
AcDbSpline
 70
8
 71
3
 72
8
 73
4
 74
0
 40
0
 40
0
 40
0
 40
0
 40
1
 40
1
 40
1
 40
1
 10
369.485174
 20
2786.550734
 30
0.0
 10
383.427964
 20
2814.856861
 30
0.0
 10
423.185715
 20
2859.179541
 30
0.0
 10
444.419902
 20
2870.093464
 30
0.0
  0
SPLINE
  5
1a8
100
AcDbEntity
  8
Layer_1
 62
7
100
AcDbSpline
 70
8
 71
3
 72
8
 73
4
 74
0
 40
0
 40
0
 40
0
 40
0
 40
1
 40
1
 40
1
 40
1
 10
444.419902
 20
2870.093464
 30
0.0
 10
453.124678
 20
2874.565672
 30
0.0
 10
466.858413
 20
2881.624487
 30
0.0
 10
474.939512
 20
2885.776097
 30
0.0
  0
SPLINE
  5
1a9
100
AcDbEntity
  8
Layer_1
 62
7
100
AcDbSpline
 70
8
 71
3
 72
8
 73
4
 74
0
 40
0
 40
0
 40
0
 40
0
 40
1
 40
1
 40
1
 40
1
 10
474.939512
 20
2885.776097
 30
0.0
 10
485.777155
 20
2891.343893
 30
0.0
 10
561.371134
 20
2906.349048
 30
0.0
 10
578.585748
 20
2906.349048
 30
0.0
  0
SPLINE
  5
1aa
100
AcDbEntity
  8
Layer_1
 62
7
100
AcDbSpline
 70
8
 71
3
 72
8
 73
4
 74
0
 40
0
 40
0
 40
0
 40
0
 40
1
 40
1
 40
1
 40
1
 10
578.585748
 20
2906.349048
 30
0.0
 10
579.491273
 20
2906.349048
 30
0.0
 10
581.585730
 20
2916.490532
 30
0.0
 10
583.241329
 20
2928.887253
 30
0.0
  0
SPLINE
  5
1ab
100
AcDbEntity
  8
Layer_1
 62
7
100
AcDbSpline
 70
8
 71
3
 72
8
 73
4
 74
0
 40
0
 40
0
 40
0
 40
0
 40
1
 40
1
 40
1
 40
1
 10
583.241329
 20
2928.887253
 30
0.0
 10
590.706659
 20
2984.781776
 30
0.0
 10
635.668947
 20
3050.359988
 30
0.0
 10
681.156493
 20
3071.695173
 30
0.0
  0
SPLINE
  5
1ac
100
AcDbEntity
  8
Layer_1
 62
7
100
AcDbSpline
 70
8
 71
3
 72
8
 73
4
 74
0
 40
0
 40
0
 40
0
 40
0
 40
1
 40
1
 40
1
 40
1
 10
681.156493
 20
3071.695173
 30
0.0
 10
698.070947
 20
3079.627907
 30
0.0
 10
709.196986
 20
3081.110422
 30
0.0
 10
753.423430
 20
3081.323870
 30
0.0
  0
SPLINE
  5
1ad
100
AcDbEntity
  8
Layer_1
 62
7
100
AcDbSpline
 70
8
 71
3
 72
8
 73
4
 74
0
 40
0
 40
0
 40
0
 40
0
 40
1
 40
1
 40
1
 40
1
 10
753.423430
 20
3081.323870
 30
0.0
 10
801.496733
 20
3081.598830
 30
0.0
 10
807.622612
 20
3080.639022
 30
0.0
 10
829.656479
 20
3070.004311
 30
0.0
  0
SPLINE
  5
1ae
100
AcDbEntity
  8
Layer_1
 62
7
100
AcDbSpline
 70
8
 71
3
 72
8
 73
4
 74
0
 40
0
 40
0
 40
0
 40
0
 40
1
 40
1
 40
1
 40
1
 10
829.656479
 20
3070.004311
 30
0.0
 10
874.901380
 20
3048.151521
 30
0.0
 10
903.518948
 20
3012.923210
 30
0.0
 10
924.898665
 20
2952.760006
 30
0.0
  0
SPLINE
  5
1af
100
AcDbEntity
  8
Layer_1
 62
7
100
AcDbSpline
 70
8
 71
3
 72
8
 73
4
 74
0
 40
0
 40
0
 40
0
 40
0
 40
1
 40
1
 40
1
 40
1
 10
924.898665
 20
2952.760006
 30
0.0
 10
932.280431
 20
2931.989198
 30
0.0
 10
939.624864
 20
2902.340020
 30
0.0
 10
941.220113
 20
2886.874519
 30
0.0
  0
SPLINE
  5
1b0
100
AcDbEntity
  8
Layer_1
 62
7
100
AcDbSpline
 70
8
 71
3
 72
8
 73
4
 74
0
 40
0
 40
0
 40
0
 40
0
 40
1
 40
1
 40
1
 40
1
 10
941.220113
 20
2886.874519
 30
0.0
 10
943.822055
 20
2861.653613
 30
0.0
 10
945.108641
 20
2858.757464
 30
0.0
 10
953.713864
 20
2858.757464
 30
0.0
  0
SPLINE
  5
1b1
100
AcDbEntity
  8
Layer_1
 62
7
100
AcDbSpline
 70
8
 71
3
 72
8
 73
4
 74
0
 40
0
 40
0
 40
0
 40
0
 40
1
 40
1
 40
1
 40
1
 10
953.713864
 20
2858.757464
 30
0.0
 10
970.576728
 20
2858.757464
 30
0.0
 10
1015.476795
 20
2884.301235
 30
0.0
 10
1034.338220
 20
2904.622470
 30
0.0
  0
SPLINE
  5
1b2
100
AcDbEntity
  8
Layer_1
 62
7
100
AcDbSpline
 70
8
 71
3
 72
8
 73
4
 74
0
 40
0
 40
0
 40
0
 40
0
 40
1
 40
1
 40
1
 40
1
 10
1034.338220
 20
2904.622470
 30
0.0
 10
1054.080254
 20
2925.894726
 30
0.0
 10
1070.833190
 20
2958.470384
 30
0.0
 10
1068.141021
 20
2970.348934
 30
0.0
  0
SPLINE
  5
1b3
100
AcDbEntity
  8
Layer_1
 62
7
100
AcDbSpline
 70
8
 71
3
 72
8
 73
4
 74
0
 40
0
 40
0
 40
0
 40
0
 40
1
 40
1
 40
1
 40
1
 10
1068.141021
 20
2970.348934
 30
0.0
 10
1066.961925
 20
2975.547093
 30
0.0
 10
1064.451797
 20
2973.144170
 30
0.0
 10
1059.672059
 20
2962.241019
 30
0.0
  0
SPLINE
  5
1b4
100
AcDbEntity
  8
Layer_1
 62
7
100
AcDbSpline
 70
8
 71
3
 72
8
 73
4
 74
0
 40
0
 40
0
 40
0
 40
0
 40
1
 40
1
 40
1
 40
1
 10
1059.672059
 20
2962.241019
 30
0.0
 10
1044.619622
 20
2927.903351
 30
0.0
 10
1008.293568
 20
2917.564576
 30
0.0
 10
976.968808
 20
2938.705305
 30
0.0
  0
SPLINE
  5
1b5
100
AcDbEntity
  8
Layer_1
 62
7
100
AcDbSpline
 70
8
 71
3
 72
8
 73
4
 74
0
 40
0
 40
0
 40
0
 40
0
 40
1
 40
1
 40
1
 40
1
 10
976.968808
 20
2938.705305
 30
0.0
 10
943.638654
 20
2961.202125
 30
0.0
 10
945.380596
 20
3001.140471
 30
0.0
 10
981.011143
 20
3031.389741
 30
0.0
  0
SPLINE
  5
1b6
100
AcDbEntity
  8
Layer_1
 62
7
100
AcDbSpline
 70
8
 71
3
 72
8
 73
4
 74
0
 40
0
 40
0
 40
0
 40
0
 40
1
 40
1
 40
1
 40
1
 10
981.011143
 20
3031.389741
 30
0.0
 10
1001.481281
 20
3048.768055
 30
0.0
 10
1001.481281
 20
3048.768055
 30
0.0
 10
985.407950
 20
3055.437391
 30
0.0
  0
SPLINE
  5
1b7
100
AcDbEntity
  8
Layer_1
 62
7
100
AcDbSpline
 70
8
 71
3
 72
8
 73
4
 74
0
 40
0
 40
0
 40
0
 40
0
 40
1
 40
1
 40
1
 40
1
 10
985.407950
 20
3055.437391
 30
0.0
 10
976.567451
 20
3059.106830
 30
0.0
 10
967.757709
 20
3062.107010
 30
0.0
 10
965.830977
 20
3062.107010
 30
0.0
  0
SPLINE
  5
1b8
100
AcDbEntity
  8
Layer_1
 62
7
100
AcDbSpline
 70
8
 71
3
 72
8
 73
4
 74
0
 40
0
 40
0
 40
0
 40
0
 40
1
 40
1
 40
1
 40
1
 10
965.830977
 20
3062.107010
 30
0.0
 10
963.904019
 20
3062.107010
 30
0.0
 10
955.019668
 20
3068.091498
 30
0.0
 10
946.088207
 20
3075.402879
 30
0.0
  0
SPLINE
  5
1b9
100
AcDbEntity
  8
Layer_1
 62
7
100
AcDbSpline
 70
8
 71
3
 72
8
 73
4
 74
0
 40
0
 40
0
 40
0
 40
0
 40
1
 40
1
 40
1
 40
1
 10
946.088207
 20
3075.402879
 30
0.0
 10
932.595926
 20
3086.448612
 30
0.0
 10
929.881335
 20
3091.389102
 30
0.0
 10
930.040103
 20
3104.607585
 30
0.0
  0
SPLINE
  5
1ba
100
AcDbEntity
  8
Layer_1
 62
7
100
AcDbSpline
 70
8
 71
3
 72
8
 73
4
 74
0
 40
0
 40
0
 40
0
 40
0
 40
1
 40
1
 40
1
 40
1
 10
930.040103
 20
3104.607585
 30
0.0
 10
930.139032
 20
3113.356978
 30
0.0
 10
933.098762
 20
3128.304874
 30
0.0
 10
936.603452
 20
3137.823871
 30
0.0
  0
SPLINE
  5
1bb
100
AcDbEntity
  8
Layer_1
 62
7
100
AcDbSpline
 70
8
 71
3
 72
8
 73
4
 74
0
 40
0
 40
0
 40
0
 40
0
 40
1
 40
1
 40
1
 40
1
 10
936.603452
 20
3137.823871
 30
0.0
 10
940.107886
 20
3147.343435
 30
0.0
 10
944.221768
 20
3166.324737
 30
0.0
 10
945.745187
 20
3180.009235
 30
0.0
  0
SPLINE
  5
1bc
100
AcDbEntity
  8
Layer_1
 62
7
100
AcDbSpline
 70
8
 71
3
 72
8
 73
4
 74
0
 40
0
 40
0
 40
0
 40
0
 40
1
 40
1
 40
1
 40
1
 10
945.745187
 20
3180.009235
 30
0.0
 10
947.268124
 20
3193.691181
 30
0.0
 10
950.293335
 20
3204.887717
 30
0.0
 10
952.466765
 20
3204.887717
 30
0.0
  0
SPLINE
  5
1bd
100
AcDbEntity
  8
Layer_1
 62
7
100
AcDbSpline
 70
8
 71
3
 72
8
 73
4
 74
0
 40
0
 40
0
 40
0
 40
0
 40
1
 40
1
 40
1
 40
1
 10
952.466765
 20
3204.887717
 30
0.0
 10
954.640252
 20
3204.887717
 30
0.0
 10
962.275831
 20
3201.879032
 30
0.0
 10
969.434680
 20
3198.201657
 30
0.0
  0
SPLINE
  5
1be
100
AcDbEntity
  8
Layer_1
 62
7
100
AcDbSpline
 70
8
 71
3
 72
8
 73
4
 74
0
 40
0
 40
0
 40
0
 40
0
 40
1
 40
1
 40
1
 40
1
 10
969.434680
 20
3198.201657
 30
0.0
 10
976.593530
 20
3194.524281
 30
0.0
 10
1003.477603
 20
3186.037659
 30
0.0
 10
1029.177450
 20
3179.340827
 30
0.0
  0
SPLINE
  5
1bf
100
AcDbEntity
  8
Layer_1
 62
7
100
AcDbSpline
 70
8
 71
3
 72
8
 73
4
 74
0
 40
0
 40
0
 40
0
 40
0
 40
1
 40
1
 40
1
 40
1
 10
1029.177450
 20
3179.340827
 30
0.0
 10
1054.877155
 20
3172.643995
 30
0.0
 10
1083.796300
 20
3163.165533
 30
0.0
 10
1093.441638
 20
3158.276917
 30
0.0
  0
SPLINE
  5
1c0
100
AcDbEntity
  8
Layer_1
 62
7
100
AcDbSpline
 70
8
 71
3
 72
8
 73
4
 74
0
 40
0
 40
0
 40
0
 40
0
 40
1
 40
1
 40
1
 40
1
 10
1093.441638
 20
3158.276917
 30
0.0
 10
1116.533731
 20
3146.576382
 30
0.0
 10
1145.089334
 20
3118.683830
 30
0.0
 10
1156.279237
 20
3096.899638
 30
0.0
  0
SPLINE
  5
1c1
100
AcDbEntity
  8
Layer_1
 62
7
100
AcDbSpline
 70
8
 71
3
 72
8
 73
4
 74
0
 40
0
 40
0
 40
0
 40
0
 40
1
 40
1
 40
1
 40
1
 10
1156.279237
 20
3096.899638
 30
0.0
 10
1166.309234
 20
3077.372669
 30
0.0
 10
1171.809452
 20
3075.035510
 30
0.0
 10
1176.103758
 20
3088.473394
 30
0.0
  0
SPLINE
  5
1c2
100
AcDbEntity
  8
Layer_1
 62
7
100
AcDbSpline
 70
8
 71
3
 72
8
 73
4
 74
0
 40
0
 40
0
 40
0
 40
0
 40
1
 40
1
 40
1
 40
1
 10
1176.103758
 20
3088.473394
 30
0.0
 10
1177.695974
 20
3093.457821
 30
0.0
 10
1184.901964
 20
3106.221912
 30
0.0
 10
1192.117336
 20
3116.839898
 30
0.0
  0
SPLINE
  5
1c3
100
AcDbEntity
  8
Layer_1
 62
7
100
AcDbSpline
 70
8
 71
3
 72
8
 73
4
 74
0
 40
0
 40
0
 40
0
 40
0
 40
1
 40
1
 40
1
 40
1
 10
1192.117336
 20
3116.839898
 30
0.0
 10
1214.403939
 20
3149.637224
 30
0.0
 10
1257.574140
 20
3170.317325
 30
0.0
 10
1326.262630
 20
3181.100003
 30
0.0
  0
SPLINE
  5
1c4
100
AcDbEntity
  8
Layer_1
 62
7
100
AcDbSpline
 70
8
 71
3
 72
8
 73
4
 74
0
 40
0
 40
0
 40
0
 40
0
 40
1
 40
1
 40
1
 40
1
 10
1326.262630
 20
3181.100003
 30
0.0
 10
1337.044345
 20
3182.799085
 30
0.0
 10
1355.236540
 20
3188.128488
 30
0.0
 10
1366.690178
 20
3192.957010
 30
0.0
  0
SPLINE
  5
1c5
100
AcDbEntity
  8
Layer_1
 62
7
100
AcDbSpline
 70
8
 71
3
 72
8
 73
4
 74
0
 40
0
 40
0
 40
0
 40
0
 40
1
 40
1
 40
1
 40
1
 10
1366.690178
 20
3192.957010
 30
0.0
 10
1378.143560
 20
3197.787800
 30
0.0
 10
1388.903902
 20
3200.357682
 30
0.0
 10
1390.601680
 20
3198.672773
 30
0.0
  0
SPLINE
  5
1c6
100
AcDbEntity
  8
Layer_1
 62
7
100
AcDbSpline
 70
8
 71
3
 72
8
 73
4
 74
0
 40
0
 40
0
 40
0
 40
0
 40
1
 40
1
 40
1
 40
1
 10
1390.601680
 20
3198.672773
 30
0.0
 10
1392.299486
 20
3196.973692
 30
0.0
 10
1393.900773
 20
3186.498004
 30
0.0
 10
1394.160143
 20
3175.367515
 30
0.0
  0
SPLINE
  5
1c7
100
AcDbEntity
  8
Layer_1
 62
7
100
AcDbSpline
 70
8
 71
3
 72
8
 73
4
 74
0
 40
0
 40
0
 40
0
 40
0
 40
1
 40
1
 40
1
 40
1
 10
1394.160143
 20
3175.367515
 30
0.0
 10
1394.450013
 20
3162.938195
 30
0.0
 10
1398.243042
 20
3149.289131
 30
0.0
 10
1403.992764
 20
3139.986416
 30
0.0
  0
SPLINE
  5
1c8
100
AcDbEntity
  8
Layer_1
 62
7
100
AcDbSpline
 70
8
 71
3
 72
8
 73
4
 74
0
 40
0
 40
0
 40
0
 40
0
 40
1
 40
1
 40
1
 40
1
 10
1403.992764
 20
3139.986416
 30
0.0
 10
1426.552428
 20
3103.492155
 30
0.0
 10
1407.773009
 20
3069.015023
 30
0.0
 10
1359.491048
 20
3058.281950
 30
0.0
  0
SPLINE
  5
1c9
100
AcDbEntity
  8
Layer_1
 62
7
100
AcDbSpline
 70
8
 71
3
 72
8
 73
4
 74
0
 40
0
 40
0
 40
0
 40
0
 40
1
 40
1
 40
1
 40
1
 10
1359.491048
 20
3058.281950
 30
0.0
 10
1346.007328
 20
3055.286872
 30
0.0
 10
1334.975088
 20
3051.250631
 30
0.0
 10
1334.975088
 20
3049.315991
 30
0.0
  0
SPLINE
  5
1ca
100
AcDbEntity
  8
Layer_1
 62
7
100
AcDbSpline
 70
8
 71
3
 72
8
 73
4
 74
0
 40
0
 40
0
 40
0
 40
0
 40
1
 40
1
 40
1
 40
1
 10
1334.975088
 20
3049.315991
 30
0.0
 10
1334.975088
 20
3047.370295
 30
0.0
 10
1340.365889
 20
3042.325774
 30
0.0
 10
1346.954522
 20
3038.086573
 30
0.0
  0
SPLINE
  5
1cb
100
AcDbEntity
  8
Layer_1
 62
7
100
AcDbSpline
 70
8
 71
3
 72
8
 73
4
 74
0
 40
0
 40
0
 40
0
 40
0
 40
1
 40
1
 40
1
 40
1
 10
1346.954522
 20
3038.086573
 30
0.0
 10
1361.837505
 20
3028.506914
 30
0.0
 10
1373.044671
 20
3016.110476
 30
0.0
 10
1381.600033
 20
2999.767655
 30
0.0
  0
SPLINE
  5
1cc
100
AcDbEntity
  8
Layer_1
 62
7
100
AcDbSpline
 70
8
 71
3
 72
8
 73
4
 74
0
 40
0
 40
0
 40
0
 40
0
 40
1
 40
1
 40
1
 40
1
 10
1381.600033
 20
2999.767655
 30
0.0
 10
1390.774395
 20
2982.241657
 30
0.0
 10
1382.318018
 20
2958.341408
 30
0.0
 10
1359.791265
 20
2938.130157
 30
0.0
  0
SPLINE
  5
1cd
100
AcDbEntity
  8
Layer_1
 62
7
100
AcDbSpline
 70
8
 71
3
 72
8
 73
4
 74
0
 40
0
 40
0
 40
0
 40
0
 40
1
 40
1
 40
1
 40
1
 10
1359.791265
 20
2938.130157
 30
0.0
 10
1343.887303
 20
2923.858889
 30
0.0
 10
1340.901040
 20
2922.820278
 30
0.0
 10
1321.137095
 20
2924.708430
 30
0.0
  0
SPLINE
  5
1ce
100
AcDbEntity
  8
Layer_1
 62
7
100
AcDbSpline
 70
8
 71
3
 72
8
 73
4
 74
0
 40
0
 40
0
 40
0
 40
0
 40
1
 40
1
 40
1
 40
1
 10
1321.137095
 20
2924.708430
 30
0.0
 10
1298.891056
 20
2926.818251
 30
0.0
 10
1277.007680
 20
2942.004540
 30
0.0
 10
1271.546637
 20
2959.092304
 30
0.0
  0
SPLINE
  5
1cf
100
AcDbEntity
  8
Layer_1
 62
7
100
AcDbSpline
 70
8
 71
3
 72
8
 73
4
 74
0
 40
0
 40
0
 40
0
 40
0
 40
1
 40
1
 40
1
 40
1
 10
1271.546637
 20
2959.092304
 30
0.0
 10
1267.946789
 20
2970.359989
 30
0.0
 10
1261.216706
 20
2964.627501
 30
0.0
 10
1264.222783
 20
2952.855817
 30
0.0
  0
SPLINE
  5
1d0
100
AcDbEntity
  8
Layer_1
 62
7
100
AcDbSpline
 70
8
 71
3
 72
8
 73
4
 74
0
 40
0
 40
0
 40
0
 40
0
 40
1
 40
1
 40
1
 40
1
 10
1264.222783
 20
2952.855817
 30
0.0
 10
1274.063370
 20
2914.326002
 30
0.0
 10
1338.459453
 20
2860.982371
 30
0.0
 10
1379.070459
 20
2857.721687
 30
0.0
  0
SPLINE
  5
1d1
100
AcDbEntity
  8
Layer_1
 62
7
100
AcDbSpline
 70
8
 71
3
 72
8
 73
4
 74
0
 40
0
 40
0
 40
0
 40
0
 40
1
 40
1
 40
1
 40
1
 10
1379.070459
 20
2857.721687
 30
0.0
 10
1393.101916
 20
2856.598320
 30
0.0
 10
1393.101916
 20
2856.598320
 30
0.0
 10
1398.558055
 20
2893.412612
 30
0.0
  0
SPLINE
  5
1d2
100
AcDbEntity
  8
Layer_1
 62
7
100
AcDbSpline
 70
8
 71
3
 72
8
 73
4
 74
0
 40
0
 40
0
 40
0
 40
0
 40
1
 40
1
 40
1
 40
1
 10
1398.558055
 20
2893.412612
 30
0.0
 10
1418.529496
 20
3028.186033
 30
0.0
 10
1510.043595
 20
3102.245482
 30
0.0
 10
1626.348104
 20
3077.756195
 30
0.0
  0
SPLINE
  5
1d3
100
AcDbEntity
  8
Layer_1
 62
7
100
AcDbSpline
 70
8
 71
3
 72
8
 73
4
 74
0
 40
0
 40
0
 40
0
 40
0
 40
1
 40
1
 40
1
 40
1
 10
1626.348104
 20
3077.756195
 30
0.0
 10
1665.459501
 20
3069.519305
 30
0.0
 10
1673.771680
 20
3064.381524
 30
0.0
 10
1698.406411
 20
3033.206177
 30
0.0
  0
SPLINE
  5
1d4
100
AcDbEntity
  8
Layer_1
 62
7
100
AcDbSpline
 70
8
 71
3
 72
8
 73
4
 74
0
 40
0
 40
0
 40
0
 40
0
 40
1
 40
1
 40
1
 40
1
 10
1698.406411
 20
3033.206177
 30
0.0
 10
1720.152704
 20
3005.689214
 30
0.0
 10
1734.926014
 20
2969.543330
 30
0.0
 10
1741.646459
 20
2927.412958
 30
0.0
  0
SPLINE
  5
1d5
100
AcDbEntity
  8
Layer_1
 62
7
100
AcDbSpline
 70
8
 71
3
 72
8
 73
4
 74
0
 40
0
 40
0
 40
0
 40
0
 40
1
 40
1
 40
1
 40
1
 10
1741.646459
 20
2927.412958
 30
0.0
 10
1746.223662
 20
2898.717636
 30
0.0
 10
1746.223662
 20
2898.717636
 30
0.0
 10
1788.232285
 20
2894.587852
 30
0.0
  0
SPLINE
  5
1d6
100
AcDbEntity
  8
Layer_1
 62
7
100
AcDbSpline
 70
8
 71
3
 72
8
 73
4
 74
0
 40
0
 40
0
 40
0
 40
0
 40
1
 40
1
 40
1
 40
1
 10
1788.232285
 20
2894.587852
 30
0.0
 10
1838.052746
 20
2889.691583
 30
0.0
 10
1860.613515
 20
2880.264994
 30
0.0
 10
1901.997044
 20
2847.062031
 30
0.0
  0
SPLINE
  5
1d7
100
AcDbEntity
  8
Layer_1
 62
7
100
AcDbSpline
 70
8
 71
3
 72
8
 73
4
 74
0
 40
0
 40
0
 40
0
 40
0
 40
1
 40
1
 40
1
 40
1
 10
1901.997044
 20
2847.062031
 30
0.0
 10
1957.899277
 20
2802.208140
 30
0.0
 10
1972.489724
 20
2773.403117
 30
0.0
 10
1972.885298
 20
2707.115112
 30
0.0
  0
SPLINE
  5
1d8
100
AcDbEntity
  8
Layer_1
 62
7
100
AcDbSpline
 70
8
 71
3
 72
8
 73
4
 74
0
 40
0
 40
0
 40
0
 40
0
 40
1
 40
1
 40
1
 40
1
 10
1972.885298
 20
2707.115112
 30
0.0
 10
1973.151187
 20
2662.693786
 30
0.0
 10
1972.715220
 20
2660.584249
 30
0.0
 10
1956.484367
 20
2627.956434
 30
0.0
  0
SPLINE
  5
1d9
100
AcDbEntity
  8
Layer_1
 62
7
100
AcDbSpline
 70
8
 71
3
 72
8
 73
4
 74
0
 40
0
 40
0
 40
0
 40
0
 40
1
 40
1
 40
1
 40
1
 10
1956.484367
 20
2627.956434
 30
0.0
 10
1934.562639
 20
2583.880650
 30
0.0
 10
1896.668690
 20
2543.528447
 30
0.0
 10
1860.778009
 20
2526.043267
 30
0.0
  0
SPLINE
  5
1da
100
AcDbEntity
  8
Layer_1
 62
7
100
AcDbSpline
 70
8
 71
3
 72
8
 73
4
 74
0
 40
0
 40
0
 40
0
 40
0
 40
1
 40
1
 40
1
 40
1
 10
1860.778009
 20
2526.043267
 30
0.0
 10
1828.553506
 20
2510.341925
 30
0.0
 10
1787.787587
 20
2499.646837
 30
0.0
 10
1760.164410
 20
2499.646837
 30
0.0
  0
SPLINE
  5
1db
100
AcDbEntity
  8
Layer_1
 62
7
100
AcDbSpline
 70
8
 71
3
 72
8
 73
4
 74
0
 40
0
 40
0
 40
0
 40
0
 40
1
 40
1
 40
1
 40
1
 10
1760.164410
 20
2499.646837
 30
0.0
 10
1749.129647
 20
2499.646837
 30
0.0
 10
1740.101382
 20
2498.084951
 30
0.0
 10
1740.101382
 20
2496.169870
 30
0.0
  0
SPLINE
  5
1dc
100
AcDbEntity
  8
Layer_1
 62
7
100
AcDbSpline
 70
8
 71
3
 72
8
 73
4
 74
0
 40
0
 40
0
 40
0
 40
0
 40
1
 40
1
 40
1
 40
1
 10
1740.101382
 20
2496.169870
 30
0.0
 10
1740.101382
 20
2494.251954
 30
0.0
 10
1747.220207
 20
2485.981615
 30
0.0
 10
1755.921128
 20
2477.782708
 30
0.0
  0
SPLINE
  5
1dd
100
AcDbEntity
  8
Layer_1
 62
7
100
AcDbSpline
 70
8
 71
3
 72
8
 73
4
 74
0
 40
0
 40
0
 40
0
 40
0
 40
1
 40
1
 40
1
 40
1
 10
1755.921128
 20
2477.782708
 30
0.0
 10
1764.622048
 20
2469.581534
 30
0.0
 10
1782.011559
 20
2447.295895
 30
0.0
 10
1794.564554
 20
2428.259601
 30
0.0
  0
SPLINE
  5
1de
100
AcDbEntity
  8
Layer_1
 62
7
100
AcDbSpline
 70
8
 71
3
 72
8
 73
4
 74
0
 40
0
 40
0
 40
0
 40
0
 40
1
 40
1
 40
1
 40
1
 10
1794.564554
 20
2428.259601
 30
0.0
 10
1836.668280
 20
2364.407684
 30
0.0
 10
1858.473221
 20
2345.568397
 30
0.0
 10
1891.765277
 20
2344.280622
 30
0.0
  0
SPLINE
  5
1df
100
AcDbEntity
  8
Layer_1
 62
7
100
AcDbSpline
 70
8
 71
3
 72
8
 73
4
 74
0
 40
0
 40
0
 40
0
 40
0
 40
1
 40
1
 40
1
 40
1
 10
1891.765277
 20
2344.280622
 30
0.0
 10
1897.313542
 20
2344.005662
 30
0.0
 10
1906.053638
 20
2346.116616
 30
0.0
 10
1911.187932
 20
2348.851475
 30
0.0
  0
LWPOLYLINE
  5
1e0
100
AcDbEntity
  8
Layer_1
 62
7
100
AcDbPolyline
 90
2
 70
0
 10
1154.300744
 20
3113.778773
 30
0.0
 10
1154.300744
 20
3113.789828
 30
0.0
  0
SPLINE
  5
1e1
100
AcDbEntity
  8
Layer_1
 62
7
100
AcDbSpline
 70
8
 71
3
 72
8
 73
4
 74
0
 40
0
 40
0
 40
0
 40
0
 40
1
 40
1
 40
1
 40
1
 10
600.956539
 20
2231.730278
 30
0.0
 10
610.540195
 20
2241.274419
 30
0.0
 10
627.692872
 20
2255.041404
 30
0.0
 10
639.073290
 20
2262.324723
 30
0.0
  0
SPLINE
  5
1e2
100
AcDbEntity
  8
Layer_1
 62
7
100
AcDbSpline
 70
8
 71
3
 72
8
 73
4
 74
0
 40
0
 40
0
 40
0
 40
0
 40
1
 40
1
 40
1
 40
1
 10
639.073290
 20
2262.324723
 30
0.0
 10
650.453794
 20
2269.607758
 30
0.0
 10
659.765239
 20
2276.285881
 30
0.0
 10
659.765239
 20
2277.168020
 30
0.0
  0
SPLINE
  5
1e3
100
AcDbEntity
  8
Layer_1
 62
7
100
AcDbSpline
 70
8
 71
3
 72
8
 73
4
 74
0
 40
0
 40
0
 40
0
 40
0
 40
1
 40
1
 40
1
 40
1
 10
659.765239
 20
2277.168020
 30
0.0
 10
659.765239
 20
2278.045057
 30
0.0
 10
653.394277
 20
2282.020920
 30
0.0
 10
645.607386
 20
2285.999901
 30
0.0
  0
SPLINE
  5
1e4
100
AcDbEntity
  8
Layer_1
 62
7
100
AcDbSpline
 70
8
 71
3
 72
8
 73
4
 74
0
 40
0
 40
0
 40
0
 40
0
 40
1
 40
1
 40
1
 40
1
 10
645.607386
 20
2285.999901
 30
0.0
 10
637.820749
 20
2289.975481
 30
0.0
 10
620.535921
 20
2301.550157
 30
0.0
 10
607.196428
 20
2311.716302
 30
0.0
  0
SPLINE
  5
1e5
100
AcDbEntity
  8
Layer_1
 62
7
100
AcDbSpline
 70
8
 71
3
 72
8
 73
4
 74
0
 40
0
 40
0
 40
0
 40
0
 40
1
 40
1
 40
1
 40
1
 10
607.196428
 20
2311.716302
 30
0.0
 10
582.943040
 20
2330.201542
 30
0.0
 10
582.943040
 20
2330.201542
 30
0.0
 10
557.836256
 20
2308.921633
 30
0.0
  0
SPLINE
  5
1e6
100
AcDbEntity
  8
Layer_1
 62
7
100
AcDbSpline
 70
8
 71
3
 72
8
 73
4
 74
0
 40
0
 40
0
 40
0
 40
0
 40
1
 40
1
 40
1
 40
1
 10
557.836256
 20
2308.921633
 30
0.0
 10
544.027658
 20
2297.217980
 30
0.0
 10
528.790204
 20
2284.903747
 30
0.0
 10
523.975600
 20
2281.552354
 30
0.0
  0
SPLINE
  5
1e7
100
AcDbEntity
  8
Layer_1
 62
7
100
AcDbSpline
 70
8
 71
3
 72
8
 73
4
 74
0
 40
0
 40
0
 40
0
 40
0
 40
1
 40
1
 40
1
 40
1
 10
523.975600
 20
2281.552354
 30
0.0
 10
515.587481
 20
2275.718670
 30
0.0
 10
516.558798
 20
2274.186832
 30
0.0
 10
547.198455
 20
2244.916078
 30
0.0
  0
SPLINE
  5
1e8
100
AcDbEntity
  8
Layer_1
 62
7
100
AcDbSpline
 70
8
 71
3
 72
8
 73
4
 74
0
 40
0
 40
0
 40
0
 40
0
 40
1
 40
1
 40
1
 40
1
 10
547.198455
 20
2244.916078
 30
0.0
 10
564.785909
 20
2228.113280
 30
0.0
 10
580.155769
 20
2214.368405
 30
0.0
 10
581.353516
 20
2214.370956
 30
0.0
  0
SPLINE
  5
1e9
100
AcDbEntity
  8
Layer_1
 62
7
100
AcDbSpline
 70
8
 71
3
 72
8
 73
4
 74
0
 40
0
 40
0
 40
0
 40
0
 40
1
 40
1
 40
1
 40
1
 10
581.353516
 20
2214.370956
 30
0.0
 10
582.552115
 20
2214.373791
 30
0.0
 10
591.372827
 20
2222.186336
 30
0.0
 10
600.956539
 20
2231.730278
 30
0.0
  0
LWPOLYLINE
  5
1ea
100
AcDbEntity
  8
Layer_1
 62
7
100
AcDbPolyline
 90
1
 70
1
 10
1911.187932
 20
2348.851475
 30
0.0
  0
SPLINE
  5
1eb
100
AcDbEntity
  8
Layer_1
 62
7
100
AcDbSpline
 70
8
 71
3
 72
8
 73
4
 74
0
 40
0
 40
0
 40
0
 40
0
 40
1
 40
1
 40
1
 40
1
 10
1764.941966
 20
2221.865739
 30
0.0
 10
1776.436507
 20
2233.278472
 30
0.0
 10
1792.212088
 20
2246.354657
 30
0.0
 10
1799.999009
 20
2250.919841
 30
0.0
  0
SPLINE
  5
1ec
100
AcDbEntity
  8
Layer_1
 62
7
100
AcDbSpline
 70
8
 71
3
 72
8
 73
4
 74
0
 40
0
 40
0
 40
0
 40
0
 40
1
 40
1
 40
1
 40
1
 10
1799.999009
 20
2250.919841
 30
0.0
 10
1813.845137
 20
2259.038811
 30
0.0
 10
1818.409981
 20
2266.010035
 30
0.0
 10
1809.882058
 20
2266.010035
 30
0.0
  0
SPLINE
  5
1ed
100
AcDbEntity
  8
Layer_1
 62
7
100
AcDbSpline
 70
8
 71
3
 72
8
 73
4
 74
0
 40
0
 40
0
 40
0
 40
0
 40
1
 40
1
 40
1
 40
1
 10
1809.882058
 20
2266.010035
 30
0.0
 10
1807.530953
 20
2266.010035
 30
0.0
 10
1791.966977
 20
2278.790283
 30
0.0
 10
1775.295225
 20
2294.412256
 30
0.0
  0
SPLINE
  5
1ee
100
AcDbEntity
  8
Layer_1
 62
7
100
AcDbSpline
 70
8
 71
3
 72
8
 73
4
 74
0
 40
0
 40
0
 40
0
 40
0
 40
1
 40
1
 40
1
 40
1
 10
1775.295225
 20
2294.412256
 30
0.0
 10
1744.982600
 20
2322.811358
 30
0.0
 10
1744.982600
 20
2322.811358
 30
0.0
 10
1717.494012
 20
2301.476173
 30
0.0
  0
SPLINE
  5
1ef
100
AcDbEntity
  8
Layer_1
 62
7
100
AcDbSpline
 70
8
 71
3
 72
8
 73
4
 74
0
 40
0
 40
0
 40
0
 40
0
 40
1
 40
1
 40
1
 40
1
 10
1717.494012
 20
2301.476173
 30
0.0
 10
1702.375018
 20
2289.742757
 30
0.0
 10
1683.634150
 20
2276.913470
 30
0.0
 10
1675.847258
 20
2272.964536
 30
0.0
  0
SPLINE
  5
1f0
100
AcDbEntity
  8
Layer_1
 62
7
100
AcDbSpline
 70
8
 71
3
 72
8
 73
4
 74
0
 40
0
 40
0
 40
0
 40
0
 40
1
 40
1
 40
1
 40
1
 10
1675.847258
 20
2272.964536
 30
0.0
 10
1668.060621
 20
2269.018436
 30
0.0
 10
1661.689688
 20
2265.023865
 30
0.0
 10
1661.689688
 20
2264.089001
 30
0.0
  0
SPLINE
  5
1f1
100
AcDbEntity
  8
Layer_1
 62
7
100
AcDbSpline
 70
8
 71
3
 72
8
 73
4
 74
0
 40
0
 40
0
 40
0
 40
0
 40
1
 40
1
 40
1
 40
1
 10
1661.689688
 20
2264.089001
 30
0.0
 10
1661.689688
 20
2263.157539
 30
0.0
 10
1669.040726
 20
2257.953711
 30
0.0
 10
1678.025366
 20
2252.531049
 30
0.0
  0
SPLINE
  5
1f2
100
AcDbEntity
  8
Layer_1
 62
7
100
AcDbSpline
 70
8
 71
3
 72
8
 73
4
 74
0
 40
0
 40
0
 40
0
 40
0
 40
1
 40
1
 40
1
 40
1
 10
1678.025366
 20
2252.531049
 30
0.0
 10
1687.010062
 20
2247.108103
 30
0.0
 10
1695.341119
 20
2241.595016
 30
0.0
 10
1696.539150
 20
2240.279461
 30
0.0
  0
SPLINE
  5
1f3
100
AcDbEntity
  8
Layer_1
 62
7
100
AcDbSpline
 70
8
 71
3
 72
8
 73
4
 74
0
 40
0
 40
0
 40
0
 40
0
 40
1
 40
1
 40
1
 40
1
 10
1696.539150
 20
2240.279461
 30
0.0
 10
1702.973693
 20
2233.212709
 30
0.0
 10
1740.212954
 20
2201.111655
 30
0.0
 10
1741.974653
 20
2201.111655
 30
0.0
  0
SPLINE
  5
1f4
100
AcDbEntity
  8
Layer_1
 62
7
100
AcDbSpline
 70
8
 71
3
 72
8
 73
4
 74
0
 40
0
 40
0
 40
0
 40
0
 40
1
 40
1
 40
1
 40
1
 10
1741.974653
 20
2201.111655
 30
0.0
 10
1743.112363
 20
2201.111655
 30
0.0
 10
1753.447226
 20
2210.450085
 30
0.0
 10
1764.941966
 20
2221.865739
 30
0.0
  0
LWPOLYLINE
  5
1f5
100
AcDbEntity
  8
Layer_1
 62
7
100
AcDbPolyline
 90
1
 70
1
 10
600.956539
 20
2231.730278
 30
0.0
  0
SPLINE
  5
1f6
100
AcDbEntity
  8
Layer_1
 62
7
100
AcDbSpline
 70
8
 71
3
 72
8
 73
4
 74
0
 40
0
 40
0
 40
0
 40
0
 40
1
 40
1
 40
1
 40
1
 10
1103.086209
 20
2165.941169
 30
0.0
 10
1116.822127
 20
2179.335116
 30
0.0
 10
1135.515231
 20
2201.489512
 30
0.0
 10
1144.626806
 20
2215.174009
 30
0.0
  0
SPLINE
  5
1f7
100
AcDbEntity
  8
Layer_1
 62
7
100
AcDbSpline
 70
8
 71
3
 72
8
 73
4
 74
0
 40
0
 40
0
 40
0
 40
0
 40
1
 40
1
 40
1
 40
1
 10
1144.626806
 20
2215.174009
 30
0.0
 10
1153.738154
 20
2228.855956
 30
0.0
 10
1162.873653
 20
2240.049288
 30
0.0
 10
1164.927802
 20
2240.049288
 30
0.0
  0
SPLINE
  5
1f8
100
AcDbEntity
  8
Layer_1
 62
7
100
AcDbSpline
 70
8
 71
3
 72
8
 73
4
 74
0
 40
0
 40
0
 40
0
 40
0
 40
1
 40
1
 40
1
 40
1
 10
1164.927802
 20
2240.049288
 30
0.0
 10
1166.981723
 20
2240.049288
 30
0.0
 10
1172.726004
 20
2231.714121
 30
0.0
 10
1177.692431
 20
2221.523314
 30
0.0
  0
SPLINE
  5
1f9
100
AcDbEntity
  8
Layer_1
 62
7
100
AcDbSpline
 70
8
 71
3
 72
8
 73
4
 74
0
 40
0
 40
0
 40
0
 40
0
 40
1
 40
1
 40
1
 40
1
 10
1177.692431
 20
2221.523314
 30
0.0
 10
1194.800661
 20
2186.423979
 30
0.0
 10
1253.306480
 20
2131.535158
 30
0.0
 10
1263.170055
 20
2141.331382
 30
0.0
  0
SPLINE
  5
1fa
100
AcDbEntity
  8
Layer_1
 62
7
100
AcDbSpline
 70
8
 71
3
 72
8
 73
4
 74
0
 40
0
 40
0
 40
0
 40
0
 40
1
 40
1
 40
1
 40
1
 10
1263.170055
 20
2141.331382
 30
0.0
 10
1267.204397
 20
2145.337633
 30
0.0
 10
1252.748311
 20
2196.011858
 30
0.0
 10
1241.004066
 20
2219.032235
 30
0.0
  0
SPLINE
  5
1fb
100
AcDbEntity
  8
Layer_1
 62
7
100
AcDbSpline
 70
8
 71
3
 72
8
 73
4
 74
0
 40
0
 40
0
 40
0
 40
0
 40
1
 40
1
 40
1
 40
1
 10
1241.004066
 20
2219.032235
 30
0.0
 10
1235.195383
 20
2230.415006
 30
0.0
 10
1224.258245
 20
2246.727412
 30
0.0
 10
1216.699400
 20
2255.276963
 30
0.0
  0
SPLINE
  5
1fc
100
AcDbEntity
  8
Layer_1
 62
7
100
AcDbSpline
 70
8
 71
3
 72
8
 73
4
 74
0
 40
0
 40
0
 40
0
 40
0
 40
1
 40
1
 40
1
 40
1
 10
1216.699400
 20
2255.276963
 30
0.0
 10
1202.956339
 20
2270.824668
 30
0.0
 10
1202.956339
 20
2270.824668
 30
0.0
 10
1220.592038
 20
2288.970318
 30
0.0
  0
SPLINE
  5
1fd
100
AcDbEntity
  8
Layer_1
 62
7
100
AcDbSpline
 70
8
 71
3
 72
8
 73
4
 74
0
 40
0
 40
0
 40
0
 40
0
 40
1
 40
1
 40
1
 40
1
 10
1220.592038
 20
2288.970318
 30
0.0
 10
1242.917050
 20
2311.937971
 30
0.0
 10
1254.759175
 20
2335.470851
 30
0.0
 10
1262.285648
 20
2371.819695
 30
0.0
  0
SPLINE
  5
1fe
100
AcDbEntity
  8
Layer_1
 62
7
100
AcDbSpline
 70
8
 71
3
 72
8
 73
4
 74
0
 40
0
 40
0
 40
0
 40
0
 40
1
 40
1
 40
1
 40
1
 10
1262.285648
 20
2371.819695
 30
0.0
 10
1267.660348
 20
2397.777607
 30
0.0
 10
1267.566834
 20
2400.274073
 30
0.0
 10
1261.307755
 20
2397.895528
 30
0.0
  0
SPLINE
  5
1ff
100
AcDbEntity
  8
Layer_1
 62
7
100
AcDbSpline
 70
8
 71
3
 72
8
 73
4
 74
0
 40
0
 40
0
 40
0
 40
0
 40
1
 40
1
 40
1
 40
1
 10
1261.307755
 20
2397.895528
 30
0.0
 10
1246.775672
 20
2392.368551
 30
0.0
 10
1200.389489
 20
2354.112563
 30
0.0
 10
1190.622915
 20
2339.600635
 30
0.0
  0
SPLINE
  5
200
100
AcDbEntity
  8
Layer_1
 62
7
100
AcDbSpline
 70
8
 71
3
 72
8
 73
4
 74
0
 40
0
 40
0
 40
0
 40
0
 40
1
 40
1
 40
1
 40
1
 10
1190.622915
 20
2339.600635
 30
0.0
 10
1185.004776
 20
2331.251209
 30
0.0
 10
1179.370508
 20
2323.447167
 30
0.0
 10
1178.102319
 20
2322.257753
 30
0.0
  0
SPLINE
  5
201
100
AcDbEntity
  8
Layer_1
 62
7
100
AcDbSpline
 70
8
 71
3
 72
8
 73
4
 74
0
 40
0
 40
0
 40
0
 40
0
 40
1
 40
1
 40
1
 40
1
 10
1178.102319
 20
2322.257753
 30
0.0
 10
1176.834613
 20
2321.079678
 30
0.0
 10
1173.428314
 20
2314.738877
 30
0.0
 10
1170.533581
 20
2308.195399
 30
0.0
  0
SPLINE
  5
202
100
AcDbEntity
  8
Layer_1
 62
7
100
AcDbSpline
 70
8
 71
3
 72
8
 73
4
 74
0
 40
0
 40
0
 40
0
 40
0
 40
1
 40
1
 40
1
 40
1
 10
1170.533581
 20
2308.195399
 30
0.0
 10
1167.638878
 20
2301.651354
 30
0.0
 10
1163.758032
 20
2296.300125
 30
0.0
 10
1161.909734
 20
2296.308345
 30
0.0
  0
SPLINE
  5
203
100
AcDbEntity
  8
Layer_1
 62
7
100
AcDbSpline
 70
8
 71
3
 72
8
 73
4
 74
0
 40
0
 40
0
 40
0
 40
0
 40
1
 40
1
 40
1
 40
1
 10
1161.909734
 20
2296.308345
 30
0.0
 10
1160.061664
 20
2296.308345
 30
0.0
 10
1152.906670
 20
2307.044252
 30
0.0
 10
1146.010166
 20
2320.153318
 30
0.0
  0
SPLINE
  5
204
100
AcDbEntity
  8
Layer_1
 62
7
100
AcDbSpline
 70
8
 71
3
 72
8
 73
4
 74
0
 40
0
 40
0
 40
0
 40
0
 40
1
 40
1
 40
1
 40
1
 10
1146.010166
 20
2320.153318
 30
0.0
 10
1133.045156
 20
2344.795675
 30
0.0
 10
1091.789951
 20
2386.394836
 30
0.0
 10
1068.398463
 20
2398.408031
 30
0.0
  0
SPLINE
  5
205
100
AcDbEntity
  8
Layer_1
 62
7
100
AcDbSpline
 70
8
 71
3
 72
8
 73
4
 74
0
 40
0
 40
0
 40
0
 40
0
 40
1
 40
1
 40
1
 40
1
 10
1068.398463
 20
2398.408031
 30
0.0
 10
1055.058402
 20
2405.261334
 30
0.0
 10
1055.058402
 20
2405.261334
 30
0.0
 10
1058.170806
 20
2388.636467
 30
0.0
  0
SPLINE
  5
206
100
AcDbEntity
  8
Layer_1
 62
7
100
AcDbSpline
 70
8
 71
3
 72
8
 73
4
 74
0
 40
0
 40
0
 40
0
 40
0
 40
1
 40
1
 40
1
 40
1
 10
1058.170806
 20
2388.636467
 30
0.0
 10
1064.957354
 20
2352.389103
 30
0.0
 10
1088.266836
 20
2303.287507
 30
0.0
 10
1107.276569
 20
2285.196848
 30
0.0
  0
SPLINE
  5
207
100
AcDbEntity
  8
Layer_1
 62
7
100
AcDbSpline
 70
8
 71
3
 72
8
 73
4
 74
0
 40
0
 40
0
 40
0
 40
0
 40
1
 40
1
 40
1
 40
1
 10
1107.276569
 20
2285.196848
 30
0.0
 10
1125.806540
 20
2267.560866
 30
0.0
 10
1125.806540
 20
2267.560866
 30
0.0
 10
1112.476911
 20
2254.887767
 30
0.0
  0
SPLINE
  5
208
100
AcDbEntity
  8
Layer_1
 62
7
100
AcDbSpline
 70
8
 71
3
 72
8
 73
4
 74
0
 40
0
 40
0
 40
0
 40
0
 40
1
 40
1
 40
1
 40
1
 10
1112.476911
 20
2254.887767
 30
0.0
 10
1093.821592
 20
2237.150304
 30
0.0
 10
1075.542232
 20
2203.665380
 30
0.0
 10
1067.426862
 20
2172.363892
 30
0.0
  0
SPLINE
  5
209
100
AcDbEntity
  8
Layer_1
 62
7
100
AcDbSpline
 70
8
 71
3
 72
8
 73
4
 74
0
 40
0
 40
0
 40
0
 40
0
 40
1
 40
1
 40
1
 40
1
 10
1067.426862
 20
2172.363892
 30
0.0
 10
1063.636526
 20
2157.742603
 30
0.0
 10
1060.535064
 20
2143.808572
 30
0.0
 10
1060.535064
 20
2141.400066
 30
0.0
  0
SPLINE
  5
20a
100
AcDbEntity
  8
Layer_1
 62
7
100
AcDbSpline
 70
8
 71
3
 72
8
 73
4
 74
0
 40
0
 40
0
 40
0
 40
0
 40
1
 40
1
 40
1
 40
1
 10
1060.535064
 20
2141.400066
 30
0.0
 10
1060.535064
 20
2131.927160
 30
0.0
 10
1079.309522
 20
2142.769904
 30
0.0
 10
1103.086493
 20
2165.941169
 30
0.0
  0
LWPOLYLINE
  5
20b
100
AcDbEntity
  8
Layer_1
 62
7
100
AcDbPolyline
 90
1
 70
1
 10
1764.941966
 20
2221.865739
 30
0.0
  0
SPLINE
  5
20c
100
AcDbEntity
  8
Layer_1
 62
7
100
AcDbSpline
 70
8
 71
3
 72
8
 73
4
 74
0
 40
0
 40
0
 40
0
 40
0
 40
1
 40
1
 40
1
 40
1
 10
244.875290
 20
2057.251291
 30
0.0
 10
273.880154
 20
2091.933907
 30
0.0
 10
285.514358
 20
2117.250539
 30
0.0
 10
292.056986
 20
2159.920966
 30
0.0
  0
SPLINE
  5
20d
100
AcDbEntity
  8
Layer_1
 62
7
100
AcDbSpline
 70
8
 71
3
 72
8
 73
4
 74
0
 40
0
 40
0
 40
0
 40
0
 40
1
 40
1
 40
1
 40
1
 10
292.056986
 20
2159.920966
 30
0.0
 10
299.408619
 20
2207.863195
 30
0.0
 10
299.383674
 20
2205.438162
 30
0.0
 10
292.518465
 20
2205.438162
 30
0.0
  0
SPLINE
  5
20e
100
AcDbEntity
  8
Layer_1
 62
7
100
AcDbSpline
 70
8
 71
3
 72
8
 73
4
 74
0
 40
0
 40
0
 40
0
 40
0
 40
1
 40
1
 40
1
 40
1
 10
292.518465
 20
2205.438162
 30
0.0
 10
289.394978
 20
2205.438162
 30
0.0
 10
276.573344
 20
2210.518684
 30
0.0
 10
264.026386
 20
2216.730509
 30
0.0
  0
SPLINE
  5
20f
100
AcDbEntity
  8
Layer_1
 62
7
100
AcDbSpline
 70
8
 71
3
 72
8
 73
4
 74
0
 40
0
 40
0
 40
0
 40
0
 40
1
 40
1
 40
1
 40
1
 10
264.026386
 20
2216.730509
 30
0.0
 10
246.668765
 20
2225.320879
 30
0.0
 10
237.174429
 20
2234.059699
 30
0.0
 10
224.323599
 20
2253.276275
 30
0.0
  0
SPLINE
  5
210
100
AcDbEntity
  8
Layer_1
 62
7
100
AcDbSpline
 70
8
 71
3
 72
8
 73
4
 74
0
 40
0
 40
0
 40
0
 40
0
 40
1
 40
1
 40
1
 40
1
 10
224.323599
 20
2253.276275
 30
0.0
 10
207.433409
 20
2278.529780
 30
0.0
 10
207.433409
 20
2278.529780
 30
0.0
 10
223.518278
 20
2301.396803
 30
0.0
  0
SPLINE
  5
211
100
AcDbEntity
  8
Layer_1
 62
7
100
AcDbSpline
 70
8
 71
3
 72
8
 73
4
 74
0
 40
0
 40
0
 40
0
 40
0
 40
1
 40
1
 40
1
 40
1
 10
223.518278
 20
2301.396803
 30
0.0
 10
240.868246
 20
2326.063822
 30
0.0
 10
266.978095
 20
2343.705190
 30
0.0
 10
286.301254
 20
2343.817725
 30
0.0
  0
SPLINE
  5
212
100
AcDbEntity
  8
Layer_1
 62
7
100
AcDbSpline
 70
8
 71
3
 72
8
 73
4
 74
0
 40
0
 40
0
 40
0
 40
0
 40
1
 40
1
 40
1
 40
1
 10
286.301254
 20
2343.817725
 30
0.0
 10
296.550737
 20
2343.817725
 30
0.0
 10
298.030135
 20
2345.352115
 30
0.0
 10
296.144817
 20
2353.625005
 30
0.0
  0
SPLINE
  5
213
100
AcDbEntity
  8
Layer_1
 62
7
100
AcDbSpline
 70
8
 71
3
 72
8
 73
4
 74
0
 40
0
 40
0
 40
0
 40
0
 40
1
 40
1
 40
1
 40
1
 10
296.144817
 20
2353.625005
 30
0.0
 10
294.924789
 20
2358.979069
 30
0.0
 10
291.983002
 20
2379.569311
 30
0.0
 10
289.608709
 20
2399.377760
 30
0.0
  0
SPLINE
  5
214
100
AcDbEntity
  8
Layer_1
 62
7
100
AcDbSpline
 70
8
 71
3
 72
8
 73
4
 74
0
 40
0
 40
0
 40
0
 40
0
 40
1
 40
1
 40
1
 40
1
 10
289.608709
 20
2399.377760
 30
0.0
 10
286.438450
 20
2425.831451
 30
0.0
 10
281.615881
 20
2442.245421
 30
0.0
 10
271.453138
 20
2461.185904
 30
0.0
  0
SPLINE
  5
215
100
AcDbEntity
  8
Layer_1
 62
7
100
AcDbSpline
 70
8
 71
3
 72
8
 73
4
 74
0
 40
0
 40
0
 40
0
 40
0
 40
1
 40
1
 40
1
 40
1
 10
271.453138
 20
2461.185904
 30
0.0
 10
257.198878
 20
2487.746460
 30
0.0
 10
231.448744
 20
2514.326292
 30
0.0
 10
222.757178
 20
2511.448851
 30
0.0
  0
SPLINE
  5
216
100
AcDbEntity
  8
Layer_1
 62
7
100
AcDbSpline
 70
8
 71
3
 72
8
 73
4
 74
0
 40
0
 40
0
 40
0
 40
0
 40
1
 40
1
 40
1
 40
1
 10
222.757178
 20
2511.448851
 30
0.0
 10
220.049815
 20
2510.544602
 30
0.0
 10
215.362458
 20
2498.281959
 30
0.0
 10
212.341018
 20
2484.181336
 30
0.0
  0
SPLINE
  5
217
100
AcDbEntity
  8
Layer_1
 62
7
100
AcDbSpline
 70
8
 71
3
 72
8
 73
4
 74
0
 40
0
 40
0
 40
0
 40
0
 40
1
 40
1
 40
1
 40
1
 10
212.341018
 20
2484.181336
 30
0.0
 10
188.330218
 20
2372.129521
 30
0.0
 10
184.213757
 20
2218.758125
 30
0.0
 10
202.304983
 20
2110.252102
 30
0.0
  0
SPLINE
  5
218
100
AcDbEntity
  8
Layer_1
 62
7
100
AcDbSpline
 70
8
 71
3
 72
8
 73
4
 74
0
 40
0
 40
0
 40
0
 40
0
 40
1
 40
1
 40
1
 40
1
 10
202.304983
 20
2110.252102
 30
0.0
 10
211.032549
 20
2057.906234
 30
0.0
 10
216.784029
 20
2036.699827
 30
0.0
 10
222.254597
 20
2036.699827
 30
0.0
  0
SPLINE
  5
219
100
AcDbEntity
  8
Layer_1
 62
7
100
AcDbSpline
 70
8
 71
3
 72
8
 73
4
 74
0
 40
0
 40
0
 40
0
 40
0
 40
1
 40
1
 40
1
 40
1
 10
222.254597
 20
2036.699827
 30
0.0
 10
225.242872
 20
2036.699827
 30
0.0
 10
235.422056
 20
2045.948003
 30
0.0
 10
244.875290
 20
2057.251291
 30
0.0
  0
LWPOLYLINE
  5
21a
100
AcDbEntity
  8
Layer_1
 62
7
100
AcDbPolyline
 90
2
 70
0
 10
1103.086493
 20
2165.941169
 30
0.0
 10
1103.086209
 20
2165.941169
 30
0.0
  0
SPLINE
  5
21b
100
AcDbEntity
  8
Layer_1
 62
7
100
AcDbSpline
 70
8
 71
3
 72
8
 73
4
 74
0
 40
0
 40
0
 40
0
 40
0
 40
1
 40
1
 40
1
 40
1
 10
924.328733
 20
1981.254793
 30
0.0
 10
938.535654
 20
1989.795982
 30
0.0
 10
969.054697
 20
2022.256298
 30
0.0
 10
969.054697
 20
2028.824523
 30
0.0
  0
SPLINE
  5
21c
100
AcDbEntity
  8
Layer_1
 62
7
100
AcDbSpline
 70
8
 71
3
 72
8
 73
4
 74
0
 40
0
 40
0
 40
0
 40
0
 40
1
 40
1
 40
1
 40
1
 10
969.054697
 20
2028.824523
 30
0.0
 10
969.054697
 20
2042.755662
 30
0.0
 10
921.426886
 20
2010.788601
 30
0.0
 10
901.822786
 20
1983.701794
 30
0.0
  0
SPLINE
  5
21d
100
AcDbEntity
  8
Layer_1
 62
7
100
AcDbSpline
 70
8
 71
3
 72
8
 73
4
 74
0
 40
0
 40
0
 40
0
 40
0
 40
1
 40
1
 40
1
 40
1
 10
901.822786
 20
1983.701794
 30
0.0
 10
889.364383
 20
1966.487917
 30
0.0
 10
889.364383
 20
1966.487917
 30
0.0
 10
899.805006
 20
1969.636378
 30
0.0
  0
SPLINE
  5
21e
100
AcDbEntity
  8
Layer_1
 62
7
100
AcDbSpline
 70
8
 71
3
 72
8
 73
4
 74
0
 40
0
 40
0
 40
0
 40
0
 40
1
 40
1
 40
1
 40
1
 10
899.805006
 20
1969.636378
 30
0.0
 10
905.547642
 20
1971.362729
 30
0.0
 10
916.583199
 20
1976.596491
 30
0.0
 10
924.328733
 20
1981.254793
 30
0.0
  0
LWPOLYLINE
  5
21f
100
AcDbEntity
  8
Layer_1
 62
7
100
AcDbPolyline
 90
1
 70
1
 10
244.875290
 20
2057.251291
 30
0.0
  0
SPLINE
  5
220
100
AcDbEntity
  8
Layer_1
 62
7
100
AcDbSpline
 70
8
 71
3
 72
8
 73
4
 74
0
 40
0
 40
0
 40
0
 40
0
 40
1
 40
1
 40
1
 40
1
 10
1430.811358
 20
1965.983720
 30
0.0
 10
1430.811358
 20
1976.278615
 30
0.0
 10
1374.820061
 20
2028.046329
 30
0.0
 10
1363.683846
 20
2028.046329
 30
0.0
  0
SPLINE
  5
221
100
AcDbEntity
  8
Layer_1
 62
7
100
AcDbSpline
 70
8
 71
3
 72
8
 73
4
 74
0
 40
0
 40
0
 40
0
 40
0
 40
1
 40
1
 40
1
 40
1
 10
1363.683846
 20
2028.046329
 30
0.0
 10
1355.328128
 20
2028.046329
 30
0.0
 10
1377.834868
 20
1999.364699
 30
0.0
 10
1399.361788
 20
1982.578285
 30
0.0
  0
SPLINE
  5
222
100
AcDbEntity
  8
Layer_1
 62
7
100
AcDbSpline
 70
8
 71
3
 72
8
 73
4
 74
0
 40
0
 40
0
 40
0
 40
0
 40
1
 40
1
 40
1
 40
1
 10
1399.361788
 20
1982.578285
 30
0.0
 10
1423.360484
 20
1963.868287
 30
0.0
 10
1430.811358
 20
1959.936134
 30
0.0
 10
1430.811358
 20
1965.983720
 30
0.0
  0
LWPOLYLINE
  5
223
100
AcDbEntity
  8
Layer_1
 62
7
100
AcDbPolyline
 90
1
 70
1
 10
924.328733
 20
1981.254793
 30
0.0
  0
SPLINE
  5
224
100
AcDbEntity
  8
Layer_1
 62
7
100
AcDbSpline
 70
8
 71
3
 72
8
 73
4
 74
0
 40
0
 40
0
 40
0
 40
0
 40
1
 40
1
 40
1
 40
1
 10
822.839770
 20
1979.207901
 30
0.0
 10
828.029907
 20
1991.738758
 30
0.0
 10
843.214211
 20
2011.618866
 30
0.0
 10
862.350596
 20
2030.937206
 30
0.0
  0
SPLINE
  5
225
100
AcDbEntity
  8
Layer_1
 62
7
100
AcDbSpline
 70
8
 71
3
 72
8
 73
4
 74
0
 40
0
 40
0
 40
0
 40
0
 40
1
 40
1
 40
1
 40
1
 10
862.350596
 20
2030.937206
 30
0.0
 10
887.677801
 20
2056.503230
 30
0.0
 10
900.632720
 20
2065.619850
 30
0.0
 10
932.332219
 20
2080.178494
 30
0.0
  0
SPLINE
  5
226
100
AcDbEntity
  8
Layer_1
 62
7
100
AcDbSpline
 70
8
 71
3
 72
8
 73
4
 74
0
 40
0
 40
0
 40
0
 40
0
 40
1
 40
1
 40
1
 40
1
 10
932.332219
 20
2080.178494
 30
0.0
 10
953.727584
 20
2090.004822
 30
0.0
 10
974.029373
 20
2099.453010
 30
0.0
 10
977.447464
 20
2101.173834
 30
0.0
  0
SPLINE
  5
227
100
AcDbEntity
  8
Layer_1
 62
7
100
AcDbSpline
 70
8
 71
3
 72
8
 73
4
 74
0
 40
0
 40
0
 40
0
 40
0
 40
1
 40
1
 40
1
 40
1
 10
977.447464
 20
2101.173834
 30
0.0
 10
980.865584
 20
2102.900157
 30
0.0
 10
987.117236
 20
2115.863976
 30
0.0
 10
991.340506
 20
2129.992434
 30
0.0
  0
SPLINE
  5
228
100
AcDbEntity
  8
Layer_1
 62
7
100
AcDbSpline
 70
8
 71
3
 72
8
 73
4
 74
0
 40
0
 40
0
 40
0
 40
0
 40
1
 40
1
 40
1
 40
1
 10
991.340506
 20
2129.992434
 30
0.0
 10
1007.538562
 20
2184.185182
 30
0.0
 10
1035.639347
 20
2245.812107
 30
0.0
 10
1049.276875
 20
2257.055131
 30
0.0
  0
SPLINE
  5
229
100
AcDbEntity
  8
Layer_1
 62
7
100
AcDbSpline
 70
8
 71
3
 72
8
 73
4
 74
0
 40
0
 40
0
 40
0
 40
0
 40
1
 40
1
 40
1
 40
1
 10
1049.276875
 20
2257.055131
 30
0.0
 10
1057.879094
 20
2264.143710
 30
0.0
 10
1058.085540
 20
2272.032790
 30
0.0
 10
1049.848196
 20
2278.823165
 30
0.0
  0
SPLINE
  5
22a
100
AcDbEntity
  8
Layer_1
 62
7
100
AcDbSpline
 70
8
 71
3
 72
8
 73
4
 74
0
 40
0
 40
0
 40
0
 40
0
 40
1
 40
1
 40
1
 40
1
 10
1049.848196
 20
2278.823165
 30
0.0
 10
1038.934926
 20
2287.819455
 30
0.0
 10
1009.319707
 20
2349.374749
 30
0.0
 10
1001.831898
 20
2378.626227
 30
0.0
  0
SPLINE
  5
22b
100
AcDbEntity
  8
Layer_1
 62
7
100
AcDbSpline
 70
8
 71
3
 72
8
 73
4
 74
0
 40
0
 40
0
 40
0
 40
0
 40
1
 40
1
 40
1
 40
1
 10
1001.831898
 20
2378.626227
 30
0.0
 10
985.641807
 20
2441.875784
 30
0.0
 10
988.090197
 20
2437.176238
 30
0.0
 10
967.987995
 20
2443.593575
 30
0.0
  0
SPLINE
  5
22c
100
AcDbEntity
  8
Layer_1
 62
7
100
AcDbSpline
 70
8
 71
3
 72
8
 73
4
 74
0
 40
0
 40
0
 40
0
 40
0
 40
1
 40
1
 40
1
 40
1
 10
967.987995
 20
2443.593575
 30
0.0
 10
898.443898
 20
2465.797576
 30
0.0
 10
856.149372
 20
2501.891019
 30
0.0
 10
829.462930
 20
2561.811294
 30
0.0
  0
SPLINE
  5
22d
100
AcDbEntity
  8
Layer_1
 62
7
100
AcDbSpline
 70
8
 71
3
 72
8
 73
4
 74
0
 40
0
 40
0
 40
0
 40
0
 40
1
 40
1
 40
1
 40
1
 10
829.462930
 20
2561.811294
 30
0.0
 10
820.521263
 20
2581.888467
 30
0.0
 10
820.521263
 20
2581.888467
 30
0.0
 10
802.303811
 20
2578.994869
 30
0.0
  0
SPLINE
  5
22e
100
AcDbEntity
  8
Layer_1
 62
7
100
AcDbSpline
 70
8
 71
3
 72
8
 73
4
 74
0
 40
0
 40
0
 40
0
 40
0
 40
1
 40
1
 40
1
 40
1
 10
802.303811
 20
2578.994869
 30
0.0
 10
738.837603
 20
2568.916314
 30
0.0
 10
686.298158
 20
2529.997304
 30
0.0
 10
655.993499
 20
2470.614760
 30
0.0
  0
SPLINE
  5
22f
100
AcDbEntity
  8
Layer_1
 62
7
100
AcDbSpline
 70
8
 71
3
 72
8
 73
4
 74
0
 40
0
 40
0
 40
0
 40
0
 40
1
 40
1
 40
1
 40
1
 10
655.993499
 20
2470.614760
 30
0.0
 10
629.086096
 20
2417.890780
 30
0.0
 10
664.764038
 20
2352.597449
 30
0.0
 10
716.396371
 20
2360.075507
 30
0.0
  0
SPLINE
  5
230
100
AcDbEntity
  8
Layer_1
 62
7
100
AcDbSpline
 70
8
 71
3
 72
8
 73
4
 74
0
 40
0
 40
0
 40
0
 40
0
 40
1
 40
1
 40
1
 40
1
 10
716.396371
 20
2360.075507
 30
0.0
 10
734.367322
 20
2362.678555
 30
0.0
 10
742.054747
 20
2368.035453
 30
0.0
 10
747.235076
 20
2381.566597
 30
0.0
  0
SPLINE
  5
231
100
AcDbEntity
  8
Layer_1
 62
7
100
AcDbSpline
 70
8
 71
3
 72
8
 73
4
 74
0
 40
0
 40
0
 40
0
 40
0
 40
1
 40
1
 40
1
 40
1
 10
747.235076
 20
2381.566597
 30
0.0
 10
753.247399
 20
2397.273609
 30
0.0
 10
746.879470
 20
2417.035570
 30
0.0
 10
730.810022
 20
2432.537070
 30
0.0
  0
SPLINE
  5
232
100
AcDbEntity
  8
Layer_1
 62
7
100
AcDbSpline
 70
8
 71
3
 72
8
 73
4
 74
0
 40
0
 40
0
 40
0
 40
0
 40
1
 40
1
 40
1
 40
1
 10
730.810022
 20
2432.537070
 30
0.0
 10
715.977496
 20
2446.843487
 30
0.0
 10
715.977496
 20
2446.843487
 30
0.0
 10
730.159728
 20
2456.872719
 30
0.0
  0
SPLINE
  5
233
100
AcDbEntity
  8
Layer_1
 62
7
100
AcDbSpline
 70
8
 71
3
 72
8
 73
4
 74
0
 40
0
 40
0
 40
0
 40
0
 40
1
 40
1
 40
1
 40
1
 10
730.159728
 20
2456.872719
 30
0.0
 10
747.230965
 20
2468.945725
 30
0.0
 10
790.763292
 20
2472.982249
 30
0.0
 10
807.745692
 20
2464.068164
 30
0.0
  0
SPLINE
  5
234
100
AcDbEntity
  8
Layer_1
 62
7
100
AcDbSpline
 70
8
 71
3
 72
8
 73
4
 74
0
 40
0
 40
0
 40
0
 40
0
 40
1
 40
1
 40
1
 40
1
 10
807.745692
 20
2464.068164
 30
0.0
 10
823.598291
 20
2455.743683
 30
0.0
 10
837.838718
 20
2432.150709
 30
0.0
 10
840.916029
 20
2409.111340
 30
0.0
  0
SPLINE
  5
235
100
AcDbEntity
  8
Layer_1
 62
7
100
AcDbSpline
 70
8
 71
3
 72
8
 73
4
 74
0
 40
0
 40
0
 40
0
 40
0
 40
1
 40
1
 40
1
 40
1
 10
840.916029
 20
2409.111340
 30
0.0
 10
843.623278
 20
2388.841978
 30
0.0
 10
843.623278
 20
2388.841978
 30
0.0
 10
856.637865
 20
2400.917819
 30
0.0
  0
SPLINE
  5
236
100
AcDbEntity
  8
Layer_1
 62
7
100
AcDbSpline
 70
8
 71
3
 72
8
 73
4
 74
0
 40
0
 40
0
 40
0
 40
0
 40
1
 40
1
 40
1
 40
1
 10
856.637865
 20
2400.917819
 30
0.0
 10
863.796176
 20
2407.559942
 30
0.0
 10
877.537055
 20
2415.101213
 30
0.0
 10
887.173349
 20
2417.679883
 30
0.0
  0
SPLINE
  5
237
100
AcDbEntity
  8
Layer_1
 62
7
100
AcDbSpline
 70
8
 71
3
 72
8
 73
4
 74
0
 40
0
 40
0
 40
0
 40
0
 40
1
 40
1
 40
1
 40
1
 10
887.173349
 20
2417.679883
 30
0.0
 10
909.089352
 20
2423.540780
 30
0.0
 10
938.562300
 20
2419.214272
 30
0.0
 10
938.562300
 20
2410.141163
 30
0.0
  0
SPLINE
  5
238
100
AcDbEntity
  8
Layer_1
 62
7
100
AcDbSpline
 70
8
 71
3
 72
8
 73
4
 74
0
 40
0
 40
0
 40
0
 40
0
 40
1
 40
1
 40
1
 40
1
 10
938.562300
 20
2410.141163
 30
0.0
 10
938.562300
 20
2406.543441
 30
0.0
 10
931.701427
 20
2387.874233
 30
0.0
 10
923.315492
 20
2368.657373
 30
0.0
  0
SPLINE
  5
239
100
AcDbEntity
  8
Layer_1
 62
7
100
AcDbSpline
 70
8
 71
3
 72
8
 73
4
 74
0
 40
0
 40
0
 40
0
 40
0
 40
1
 40
1
 40
1
 40
1
 10
923.315492
 20
2368.657373
 30
0.0
 10
906.591327
 20
2330.325133
 30
0.0
 10
906.643399
 20
2330.486990
 30
0.0
 10
911.336029
 20
2331.881632
 30
0.0
  0
SPLINE
  5
23a
100
AcDbEntity
  8
Layer_1
 62
7
100
AcDbSpline
 70
8
 71
3
 72
8
 73
4
 74
0
 40
0
 40
0
 40
0
 40
0
 40
1
 40
1
 40
1
 40
1
 10
911.336029
 20
2331.881632
 30
0.0
 10
913.133019
 20
2332.429851
 30
0.0
 10
923.838567
 20
2330.237542
 30
0.0
 10
935.126067
 20
2327.039787
 30
0.0
  0
SPLINE
  5
23b
100
AcDbEntity
  8
Layer_1
 62
7
100
AcDbSpline
 70
8
 71
3
 72
8
 73
4
 74
0
 40
0
 40
0
 40
0
 40
0
 40
1
 40
1
 40
1
 40
1
 10
935.126067
 20
2327.039787
 30
0.0
 10
956.597938
 20
2320.956371
 30
0.0
 10
1008.261508
 20
2279.373935
 30
0.0
 10
1008.261508
 20
2268.174565
 30
0.0
  0
SPLINE
  5
23c
100
AcDbEntity
  8
Layer_1
 62
7
100
AcDbSpline
 70
8
 71
3
 72
8
 73
4
 74
0
 40
0
 40
0
 40
0
 40
0
 40
1
 40
1
 40
1
 40
1
 10
1008.261508
 20
2268.174565
 30
0.0
 10
1008.261508
 20
2257.482594
 30
0.0
 10
972.487869
 20
2234.169116
 30
0.0
 10
938.547191
 20
2222.739941
 30
0.0
  0
SPLINE
  5
23d
100
AcDbEntity
  8
Layer_1
 62
7
100
AcDbSpline
 70
8
 71
3
 72
8
 73
4
 74
0
 40
0
 40
0
 40
0
 40
0
 40
1
 40
1
 40
1
 40
1
 10
938.547191
 20
2222.739941
 30
0.0
 10
904.832916
 20
2211.386933
 30
0.0
 10
904.832916
 20
2211.386933
 30
0.0
 10
915.571346
 20
2193.326605
 30
0.0
  0
SPLINE
  5
23e
100
AcDbEntity
  8
Layer_1
 62
7
100
AcDbSpline
 70
8
 71
3
 72
8
 73
4
 74
0
 40
0
 40
0
 40
0
 40
0
 40
1
 40
1
 40
1
 40
1
 10
915.571346
 20
2193.326605
 30
0.0
 10
922.358688
 20
2181.910952
 30
0.0
 10
927.183128
 20
2165.694556
 30
0.0
 10
928.684693
 20
2149.250170
 30
0.0
  0
SPLINE
  5
23f
100
AcDbEntity
  8
Layer_1
 62
7
100
AcDbSpline
 70
8
 71
3
 72
8
 73
4
 74
0
 40
0
 40
0
 40
0
 40
0
 40
1
 40
1
 40
1
 40
1
 10
928.684693
 20
2149.250170
 30
0.0
 10
931.059892
 20
2123.232390
 30
0.0
 10
931.059892
 20
2123.232390
 30
0.0
 10
908.457709
 20
2123.232390
 30
0.0
  0
SPLINE
  5
240
100
AcDbEntity
  8
Layer_1
 62
7
100
AcDbSpline
 70
8
 71
3
 72
8
 73
4
 74
0
 40
0
 40
0
 40
0
 40
0
 40
1
 40
1
 40
1
 40
1
 10
908.457709
 20
2123.232390
 30
0.0
 10
885.228022
 20
2123.232390
 30
0.0
 10
865.041915
 20
2130.811956
 30
0.0
 10
848.625592
 20
2145.702281
 30
0.0
  0
SPLINE
  5
241
100
AcDbEntity
  8
Layer_1
 62
7
100
AcDbSpline
 70
8
 71
3
 72
8
 73
4
 74
0
 40
0
 40
0
 40
0
 40
0
 40
1
 40
1
 40
1
 40
1
 10
848.625592
 20
2145.702281
 30
0.0
 10
839.278799
 20
2154.177252
 30
0.0
 10
839.278799
 20
2154.177252
 30
0.0
 10
836.252483
 20
2132.324434
 30
0.0
  0
SPLINE
  5
242
100
AcDbEntity
  8
Layer_1
 62
7
100
AcDbSpline
 70
8
 71
3
 72
8
 73
4
 74
0
 40
0
 40
0
 40
0
 40
0
 40
1
 40
1
 40
1
 40
1
 10
836.252483
 20
2132.324434
 30
0.0
 10
832.719248
 20
2106.807676
 30
0.0
 10
813.510750
 20
2077.602715
 30
0.0
 10
795.751404
 20
2070.746746
 30
0.0
  0
SPLINE
  5
243
100
AcDbEntity
  8
Layer_1
 62
7
100
AcDbSpline
 70
8
 71
3
 72
8
 73
4
 74
0
 40
0
 40
0
 40
0
 40
0
 40
1
 40
1
 40
1
 40
1
 10
795.751404
 20
2070.746746
 30
0.0
 10
789.242566
 20
2068.225761
 30
0.0
 10
773.639415
 20
2067.189985
 30
0.0
 10
761.077122
 20
2068.417581
 30
0.0
  0
SPLINE
  5
244
100
AcDbEntity
  8
Layer_1
 62
7
100
AcDbSpline
 70
8
 71
3
 72
8
 73
4
 74
0
 40
0
 40
0
 40
0
 40
0
 40
1
 40
1
 40
1
 40
1
 10
761.077122
 20
2068.417581
 30
0.0
 10
725.786789
 20
2071.897638
 30
0.0
 10
697.587330
 20
2096.449740
 30
0.0
 10
720.561531
 20
2103.692098
 30
0.0
  0
SPLINE
  5
245
100
AcDbEntity
  8
Layer_1
 62
7
100
AcDbSpline
 70
8
 71
3
 72
8
 73
4
 74
0
 40
0
 40
0
 40
0
 40
0
 40
1
 40
1
 40
1
 40
1
 10
720.561531
 20
2103.692098
 30
0.0
 10
725.248122
 20
2105.171779
 30
0.0
 10
734.069374
 20
2112.263419
 30
0.0
 10
740.164497
 20
2119.456397
 30
0.0
  0
SPLINE
  5
246
100
AcDbEntity
  8
Layer_1
 62
7
100
AcDbSpline
 70
8
 71
3
 72
8
 73
4
 74
0
 40
0
 40
0
 40
0
 40
0
 40
1
 40
1
 40
1
 40
1
 10
740.164497
 20
2119.456397
 30
0.0
 10
755.741909
 20
2137.845770
 30
0.0
 10
755.118742
 20
2158.980716
 30
0.0
 10
738.512753
 20
2175.474340
 30
0.0
  0
SPLINE
  5
247
100
AcDbEntity
  8
Layer_1
 62
7
100
AcDbSpline
 70
8
 71
3
 72
8
 73
4
 74
0
 40
0
 40
0
 40
0
 40
0
 40
1
 40
1
 40
1
 40
1
 10
738.512753
 20
2175.474340
 30
0.0
 10
727.412765
 20
2186.497963
 30
0.0
 10
722.588552
 20
2188.120509
 30
0.0
 10
700.910262
 20
2188.120509
 30
0.0
  0
SPLINE
  5
248
100
AcDbEntity
  8
Layer_1
 62
7
100
AcDbSpline
 70
8
 71
3
 72
8
 73
4
 74
0
 40
0
 40
0
 40
0
 40
0
 40
1
 40
1
 40
1
 40
1
 10
700.910262
 20
2188.120509
 30
0.0
 10
678.195402
 20
2188.120509
 30
0.0
 10
674.812432
 20
2186.832450
 30
0.0
 10
661.852610
 20
2173.177716
 30
0.0
  0
SPLINE
  5
249
100
AcDbEntity
  8
Layer_1
 62
7
100
AcDbSpline
 70
8
 71
3
 72
8
 73
4
 74
0
 40
0
 40
0
 40
0
 40
0
 40
1
 40
1
 40
1
 40
1
 10
661.852610
 20
2173.177716
 30
0.0
 10
626.117351
 20
2135.544328
 30
0.0
 10
634.519416
 20
2075.024215
 30
0.0
 10
682.639066
 20
2023.451041
 30
0.0
  0
SPLINE
  5
24a
100
AcDbEntity
  8
Layer_1
 62
7
100
AcDbSpline
 70
8
 71
3
 72
8
 73
4
 74
0
 40
0
 40
0
 40
0
 40
0
 40
1
 40
1
 40
1
 40
1
 10
682.639066
 20
2023.451041
 30
0.0
 10
699.080872
 20
2005.828863
 30
0.0
 10
747.859036
 20
1971.790192
 30
0.0
 10
756.670168
 20
1971.790192
 30
0.0
  0
SPLINE
  5
24b
100
AcDbEntity
  8
Layer_1
 62
7
100
AcDbSpline
 70
8
 71
3
 72
8
 73
4
 74
0
 40
0
 40
0
 40
0
 40
0
 40
1
 40
1
 40
1
 40
1
 10
756.670168
 20
1971.790192
 30
0.0
 10
759.916083
 20
1971.790192
 30
0.0
 10
764.434326
 20
1970.009076
 30
0.0
 10
766.710313
 20
1967.827879
 30
0.0
  0
SPLINE
  5
24c
100
AcDbEntity
  8
Layer_1
 62
7
100
AcDbSpline
 70
8
 71
3
 72
8
 73
4
 74
0
 40
0
 40
0
 40
0
 40
0
 40
1
 40
1
 40
1
 40
1
 10
766.710313
 20
1967.827879
 30
0.0
 10
771.082685
 20
1963.646363
 30
0.0
 10
785.422324
 20
1960.366347
 30
0.0
 10
803.520239
 20
1959.415468
 30
0.0
  0
SPLINE
  5
24d
100
AcDbEntity
  8
Layer_1
 62
7
100
AcDbSpline
 70
8
 71
3
 72
8
 73
4
 74
0
 40
0
 40
0
 40
0
 40
0
 40
1
 40
1
 40
1
 40
1
 10
803.520239
 20
1959.415468
 30
0.0
 10
812.599244
 20
1958.949623
 30
0.0
 10
815.813043
 20
1962.226918
 30
0.0
 10
822.840564
 20
1979.196931
 30
0.0
  0
LWPOLYLINE
  5
24e
100
AcDbEntity
  8
Layer_1
 62
7
100
AcDbPolyline
 90
1
 70
1
 10
1430.811358
 20
1965.983720
 30
0.0
  0
SPLINE
  5
24f
100
AcDbEntity
  8
Layer_1
 62
7
100
AcDbSpline
 70
8
 71
3
 72
8
 73
4
 74
0
 40
0
 40
0
 40
0
 40
0
 40
1
 40
1
 40
1
 40
1
 10
1541.894436
 20
1956.099848
 30
0.0
 10
1599.004791
 20
1971.387390
 30
0.0
 10
1638.166361
 20
2001.671952
 30
0.0
 10
1664.029256
 20
2050.554261
 30
0.0
  0
SPLINE
  5
250
100
AcDbEntity
  8
Layer_1
 62
7
100
AcDbSpline
 70
8
 71
3
 72
8
 73
4
 74
0
 40
0
 40
0
 40
0
 40
0
 40
1
 40
1
 40
1
 40
1
 10
1664.029256
 20
2050.554261
 30
0.0
 10
1678.179173
 20
2077.301280
 30
0.0
 10
1680.724933
 20
2086.253491
 30
0.0
 10
1680.985663
 20
2110.200029
 30
0.0
  0
SPLINE
  5
251
100
AcDbEntity
  8
Layer_1
 62
7
100
AcDbSpline
 70
8
 71
3
 72
8
 73
4
 74
0
 40
0
 40
0
 40
0
 40
0
 40
1
 40
1
 40
1
 40
1
 10
1680.985663
 20
2110.200029
 30
0.0
 10
1681.221505
 20
2131.976369
 30
0.0
 10
1679.313567
 20
2140.994372
 30
0.0
 10
1672.579941
 20
2149.908203
 30
0.0
  0
SPLINE
  5
252
100
AcDbEntity
  8
Layer_1
 62
7
100
AcDbSpline
 70
8
 71
3
 72
8
 73
4
 74
0
 40
0
 40
0
 40
0
 40
0
 40
1
 40
1
 40
1
 40
1
 10
1672.579941
 20
2149.908203
 30
0.0
 10
1659.852332
 20
2166.757828
 30
0.0
 10
1643.186590
 20
2175.150908
 30
0.0
 10
1622.465302
 20
2175.150908
 30
0.0
  0
SPLINE
  5
253
100
AcDbEntity
  8
Layer_1
 62
7
100
AcDbSpline
 70
8
 71
3
 72
8
 73
4
 74
0
 40
0
 40
0
 40
0
 40
0
 40
1
 40
1
 40
1
 40
1
 10
1622.465302
 20
2175.150908
 30
0.0
 10
1607.487473
 20
2175.150908
 30
0.0
 10
1601.514069
 20
2172.492584
 30
0.0
 10
1589.376717
 20
2160.441688
 30
0.0
  0
SPLINE
  5
254
100
AcDbEntity
  8
Layer_1
 62
7
100
AcDbSpline
 70
8
 71
3
 72
8
 73
4
 74
0
 40
0
 40
0
 40
0
 40
0
 40
1
 40
1
 40
1
 40
1
 10
1589.376717
 20
2160.441688
 30
0.0
 10
1581.230648
 20
2152.349591
 30
0.0
 10
1574.565819
 20
2141.545284
 30
0.0
 10
1574.565819
 20
2136.429046
 30
0.0
  0
SPLINE
  5
255
100
AcDbEntity
  8
Layer_1
 62
7
100
AcDbSpline
 70
8
 71
3
 72
8
 73
4
 74
0
 40
0
 40
0
 40
0
 40
0
 40
1
 40
1
 40
1
 40
1
 10
1574.565819
 20
2136.429046
 30
0.0
 10
1574.565819
 20
2122.887131
 30
0.0
 10
1585.547943
 20
2103.952403
 30
0.0
 10
1598.162336
 20
2095.742781
 30
0.0
  0
SPLINE
  5
256
100
AcDbEntity
  8
Layer_1
 62
7
100
AcDbSpline
 70
8
 71
3
 72
8
 73
4
 74
0
 40
0
 40
0
 40
0
 40
0
 40
1
 40
1
 40
1
 40
1
 10
1598.162336
 20
2095.742781
 30
0.0
 10
1612.359960
 20
2086.502854
 30
0.0
 10
1608.991220
 20
2078.715197
 30
0.0
 10
1586.426596
 20
2068.609401
 30
0.0
  0
SPLINE
  5
257
100
AcDbEntity
  8
Layer_1
 62
7
100
AcDbSpline
 70
8
 71
3
 72
8
 73
4
 74
0
 40
0
 40
0
 40
0
 40
0
 40
1
 40
1
 40
1
 40
1
 10
1586.426596
 20
2068.609401
 30
0.0
 10
1564.632568
 20
2058.851586
 30
0.0
 10
1538.131737
 20
2058.747470
 30
0.0
 10
1519.470466
 20
2068.335292
 30
0.0
  0
SPLINE
  5
258
100
AcDbEntity
  8
Layer_1
 62
7
100
AcDbSpline
 70
8
 71
3
 72
8
 73
4
 74
0
 40
0
 40
0
 40
0
 40
0
 40
1
 40
1
 40
1
 40
1
 10
1519.470466
 20
2068.335292
 30
0.0
 10
1502.800302
 20
2076.912055
 30
0.0
 10
1487.441950
 20
2106.319807
 30
0.0
 10
1487.441950
 20
2129.663616
 30
0.0
  0
SPLINE
  5
259
100
AcDbEntity
  8
Layer_1
 62
7
100
AcDbSpline
 70
8
 71
3
 72
8
 73
4
 74
0
 40
0
 40
0
 40
0
 40
0
 40
1
 40
1
 40
1
 40
1
 10
1487.441950
 20
2129.663616
 30
0.0
 10
1487.441950
 20
2146.359746
 30
0.0
 10
1487.441950
 20
2146.359746
 30
0.0
 10
1477.640311
 20
2137.240150
 30
0.0
  0
SPLINE
  5
25a
100
AcDbEntity
  8
Layer_1
 62
7
100
AcDbSpline
 70
8
 71
3
 72
8
 73
4
 74
0
 40
0
 40
0
 40
0
 40
0
 40
1
 40
1
 40
1
 40
1
 10
1477.640311
 20
2137.240150
 30
0.0
 10
1472.249709
 20
2132.225789
 30
0.0
 10
1462.938264
 20
2126.284841
 30
0.0
 10
1456.948362
 20
2124.040602
 30
0.0
  0
SPLINE
  5
25b
100
AcDbEntity
  8
Layer_1
 62
7
100
AcDbSpline
 70
8
 71
3
 72
8
 73
4
 74
0
 40
0
 40
0
 40
0
 40
0
 40
1
 40
1
 40
1
 40
1
 10
1456.948362
 20
2124.040602
 30
0.0
 10
1441.146447
 20
2118.121822
 30
0.0
 10
1391.596581
 20
2113.071631
 30
0.0
 10
1391.657158
 20
2117.384674
 30
0.0
  0
SPLINE
  5
25c
100
AcDbEntity
  8
Layer_1
 62
7
100
AcDbSpline
 70
8
 71
3
 72
8
 73
4
 74
0
 40
0
 40
0
 40
0
 40
0
 40
1
 40
1
 40
1
 40
1
 10
1391.657158
 20
2117.384674
 30
0.0
 10
1391.788685
 20
2126.945425
 30
0.0
 10
1404.339809
 20
2166.327530
 30
0.0
 10
1412.730139
 20
2183.522160
 30
0.0
  0
SPLINE
  5
25d
100
AcDbEntity
  8
Layer_1
 62
7
100
AcDbSpline
 70
8
 71
3
 72
8
 73
4
 74
0
 40
0
 40
0
 40
0
 40
0
 40
1
 40
1
 40
1
 40
1
 10
1412.730139
 20
2183.522160
 30
0.0
 10
1417.882745
 20
2194.082603
 30
0.0
 10
1422.098872
 20
2203.303396
 30
0.0
 10
1422.098872
 20
2204.010355
 30
0.0
  0
SPLINE
  5
25e
100
AcDbEntity
  8
Layer_1
 62
7
100
AcDbSpline
 70
8
 71
3
 72
8
 73
4
 74
0
 40
0
 40
0
 40
0
 40
0
 40
1
 40
1
 40
1
 40
1
 10
1422.098872
 20
2204.010355
 30
0.0
 10
1422.098872
 20
2204.722983
 30
0.0
 10
1413.240345
 20
2207.515385
 30
0.0
 10
1402.413134
 20
2210.222747
 30
0.0
  0
SPLINE
  5
25f
100
AcDbEntity
  8
Layer_1
 62
7
100
AcDbSpline
 70
8
 71
3
 72
8
 73
4
 74
0
 40
0
 40
0
 40
0
 40
0
 40
1
 40
1
 40
1
 40
1
 10
1402.413134
 20
2210.222747
 30
0.0
 10
1378.095315
 20
2216.302762
 30
0.0
 10
1321.850176
 20
2254.662697
 30
0.0
 10
1322.051407
 20
2265.026416
 30
0.0
  0
SPLINE
  5
260
100
AcDbEntity
  8
Layer_1
 62
7
100
AcDbSpline
 70
8
 71
3
 72
8
 73
4
 74
0
 40
0
 40
0
 40
0
 40
0
 40
1
 40
1
 40
1
 40
1
 10
1322.051407
 20
2265.026416
 30
0.0
 10
1322.450014
 20
2285.498454
 30
0.0
 10
1376.952105
 20
2320.706923
 30
0.0
 10
1412.339185
 20
2323.353908
 30
0.0
  0
SPLINE
  5
261
100
AcDbEntity
  8
Layer_1
 62
7
100
AcDbSpline
 70
8
 71
3
 72
8
 73
4
 74
0
 40
0
 40
0
 40
0
 40
0
 40
1
 40
1
 40
1
 40
1
 10
1412.339185
 20
2323.353908
 30
0.0
 10
1424.382541
 20
2324.258157
 30
0.0
 10
1424.569797
 20
2328.278241
 30
0.0
 10
1413.299050
 20
2343.995740
 30
0.0
  0
SPLINE
  5
262
100
AcDbEntity
  8
Layer_1
 62
7
100
AcDbSpline
 70
8
 71
3
 72
8
 73
4
 74
0
 40
0
 40
0
 40
0
 40
0
 40
1
 40
1
 40
1
 40
1
 10
1413.299050
 20
2343.995740
 30
0.0
 10
1402.340709
 20
2359.280674
 30
0.0
 10
1392.797334
 20
2403.036144
 30
0.0
 10
1399.064151
 20
2409.261859
 30
0.0
  0
SPLINE
  5
263
100
AcDbEntity
  8
Layer_1
 62
7
100
AcDbSpline
 70
8
 71
3
 72
8
 73
4
 74
0
 40
0
 40
0
 40
0
 40
0
 40
1
 40
1
 40
1
 40
1
 10
1399.064151
 20
2409.261859
 30
0.0
 10
1410.343118
 20
2420.463497
 30
0.0
 10
1468.609325
 20
2406.877928
 30
0.0
 10
1479.168663
 20
2390.592651
 30
0.0
  0
SPLINE
  5
264
100
AcDbEntity
  8
Layer_1
 62
7
100
AcDbSpline
 70
8
 71
3
 72
8
 73
4
 74
0
 40
0
 40
0
 40
0
 40
0
 40
1
 40
1
 40
1
 40
1
 10
1479.168663
 20
2390.592651
 30
0.0
 10
1480.609339
 20
2388.373129
 30
0.0
 10
1484.357496
 20
2395.933675
 30
0.0
 10
1487.499522
 20
2407.398651
 30
0.0
  0
SPLINE
  5
265
100
AcDbEntity
  8
Layer_1
 62
7
100
AcDbSpline
 70
8
 71
3
 72
8
 73
4
 74
0
 40
0
 40
0
 40
0
 40
0
 40
1
 40
1
 40
1
 40
1
 10
1487.499522
 20
2407.398651
 30
0.0
 10
1498.265023
 20
2446.682196
 30
0.0
 10
1519.843306
 20
2465.594616
 30
0.0
 10
1554.434278
 20
2466.063182
 30
0.0
  0
SPLINE
  5
266
100
AcDbEntity
  8
Layer_1
 62
7
100
AcDbSpline
 70
8
 71
3
 72
8
 73
4
 74
0
 40
0
 40
0
 40
0
 40
0
 40
1
 40
1
 40
1
 40
1
 10
1554.434278
 20
2466.063182
 30
0.0
 10
1569.605118
 20
2466.338142
 30
0.0
 10
1595.157394
 20
2454.663686
 30
0.0
 10
1608.318730
 20
2441.590903
 30
0.0
  0
SPLINE
  5
267
100
AcDbEntity
  8
Layer_1
 62
7
100
AcDbSpline
 70
8
 71
3
 72
8
 73
4
 74
0
 40
0
 40
0
 40
0
 40
0
 40
1
 40
1
 40
1
 40
1
 10
1608.318730
 20
2441.590903
 30
0.0
 10
1609.038133
 20
2440.878275
 30
0.0
 10
1601.483937
 20
2432.202583
 30
0.0
 10
1591.530163
 20
2422.316216
 30
0.0
  0
SPLINE
  5
268
100
AcDbEntity
  8
Layer_1
 62
7
100
AcDbSpline
 70
8
 71
3
 72
8
 73
4
 74
0
 40
0
 40
0
 40
0
 40
0
 40
1
 40
1
 40
1
 40
1
 10
1591.530163
 20
2422.316216
 30
0.0
 10
1574.639548
 20
2405.540546
 30
0.0
 10
1573.597252
 20
2403.118348
 30
0.0
 10
1575.907226
 20
2386.013860
 30
0.0
  0
SPLINE
  5
269
100
AcDbEntity
  8
Layer_1
 62
7
100
AcDbSpline
 70
8
 71
3
 72
8
 73
4
 74
0
 40
0
 40
0
 40
0
 40
0
 40
1
 40
1
 40
1
 40
1
 10
1575.907226
 20
2386.013860
 30
0.0
 10
1579.555349
 20
2359.000896
 30
0.0
 10
1595.610851
 20
2346.615513
 30
0.0
 10
1623.527384
 20
2349.278938
 30
0.0
  0
SPLINE
  5
26a
100
AcDbEntity
  8
Layer_1
 62
7
100
AcDbSpline
 70
8
 71
3
 72
8
 73
4
 74
0
 40
0
 40
0
 40
0
 40
0
 40
1
 40
1
 40
1
 40
1
 10
1623.527384
 20
2349.278938
 30
0.0
 10
1672.699194
 20
2353.972815
 30
0.0
 10
1698.507806
 20
2410.538580
 30
0.0
 10
1675.276220
 20
2462.701301
 30
0.0
  0
SPLINE
  5
26b
100
AcDbEntity
  8
Layer_1
 62
7
100
AcDbSpline
 70
8
 71
3
 72
8
 73
4
 74
0
 40
0
 40
0
 40
0
 40
0
 40
1
 40
1
 40
1
 40
1
 10
1675.276220
 20
2462.701301
 30
0.0
 10
1656.364339
 20
2505.163042
 30
0.0
 10
1592.263200
 20
2556.059247
 30
0.0
 10
1541.893642
 20
2568.606772
 30
0.0
  0
SPLINE
  5
26c
100
AcDbEntity
  8
Layer_1
 62
7
100
AcDbSpline
 70
8
 71
3
 72
8
 73
4
 74
0
 40
0
 40
0
 40
0
 40
0
 40
1
 40
1
 40
1
 40
1
 10
1541.893642
 20
2568.606772
 30
0.0
 10
1529.913867
 20
2571.590795
 30
0.0
 10
1517.670131
 20
2574.749999
 30
0.0
 10
1514.685201
 20
2575.629870
 30
0.0
  0
SPLINE
  5
26d
100
AcDbEntity
  8
Layer_1
 62
7
100
AcDbSpline
 70
8
 71
3
 72
8
 73
4
 74
0
 40
0
 40
0
 40
0
 40
0
 40
1
 40
1
 40
1
 40
1
 10
1514.685201
 20
2575.629870
 30
0.0
 10
1511.543997
 20
2576.561616
 30
0.0
 10
1503.813259
 20
2565.661299
 30
0.0
 10
1496.333387
 20
2549.773438
 30
0.0
  0
SPLINE
  5
26e
100
AcDbEntity
  8
Layer_1
 62
7
100
AcDbSpline
 70
8
 71
3
 72
8
 73
4
 74
0
 40
0
 40
0
 40
0
 40
0
 40
1
 40
1
 40
1
 40
1
 10
1496.333387
 20
2549.773438
 30
0.0
 10
1482.164563
 20
2519.672135
 30
0.0
 10
1447.794835
 20
2479.457412
 30
0.0
 10
1423.486880
 20
2464.536729
 30
0.0
  0
SPLINE
  5
26f
100
AcDbEntity
  8
Layer_1
 62
7
100
AcDbSpline
 70
8
 71
3
 72
8
 73
4
 74
0
 40
0
 40
0
 40
0
 40
0
 40
1
 40
1
 40
1
 40
1
 10
1423.486880
 20
2464.536729
 30
0.0
 10
1414.951276
 20
2459.297752
 30
0.0
 10
1393.014184
 20
2450.748484
 30
0.0
 10
1374.738055
 20
2445.541821
 30
0.0
  0
SPLINE
  5
270
100
AcDbEntity
  8
Layer_1
 62
7
100
AcDbSpline
 70
8
 71
3
 72
8
 73
4
 74
0
 40
0
 40
0
 40
0
 40
0
 40
1
 40
1
 40
1
 40
1
 10
1374.738055
 20
2445.541821
 30
0.0
 10
1341.508560
 20
2436.074414
 30
0.0
 10
1341.508560
 20
2436.074414
 30
0.0
 10
1333.921481
 20
2406.201017
 30
0.0
  0
SPLINE
  5
271
100
AcDbEntity
  8
Layer_1
 62
7
100
AcDbSpline
 70
8
 71
3
 72
8
 73
4
 74
0
 40
0
 40
0
 40
0
 40
0
 40
1
 40
1
 40
1
 40
1
 10
1333.921481
 20
2406.201017
 30
0.0
 10
1317.312205
 20
2340.800820
 30
0.0
 10
1300.063037
 20
2300.656679
 30
0.0
 10
1279.586605
 20
2279.749525
 30
0.0
  0
SPLINE
  5
272
100
AcDbEntity
  8
Layer_1
 62
7
100
AcDbSpline
 70
8
 71
3
 72
8
 73
4
 74
0
 40
0
 40
0
 40
0
 40
0
 40
1
 40
1
 40
1
 40
1
 10
1279.586605
 20
2279.749525
 30
0.0
 10
1272.236134
 20
2272.243971
 30
0.0
 10
1272.284635
 20
2272.002743
 30
0.0
 10
1284.380375
 20
2255.972866
 30
0.0
  0
SPLINE
  5
273
100
AcDbEntity
  8
Layer_1
 62
7
100
AcDbSpline
 70
8
 71
3
 72
8
 73
4
 74
0
 40
0
 40
0
 40
0
 40
0
 40
1
 40
1
 40
1
 40
1
 10
1284.380375
 20
2255.972866
 30
0.0
 10
1304.066169
 20
2229.886063
 30
0.0
 10
1321.311737
 20
2183.069752
 30
0.0
 10
1336.757565
 20
2113.789559
 30
0.0
  0
SPLINE
  5
274
100
AcDbEntity
  8
Layer_1
 62
7
100
AcDbSpline
 70
8
 71
3
 72
8
 73
4
 74
0
 40
0
 40
0
 40
0
 40
0
 40
1
 40
1
 40
1
 40
1
 10
1336.757565
 20
2113.789559
 30
0.0
 10
1338.930995
 20
2104.039936
 30
0.0
 10
1343.326725
 20
2101.066855
 30
0.0
 10
1364.384342
 20
2095.106944
 30
0.0
  0
SPLINE
  5
275
100
AcDbEntity
  8
Layer_1
 62
7
100
AcDbSpline
 70
8
 71
3
 72
8
 73
4
 74
0
 40
0
 40
0
 40
0
 40
0
 40
1
 40
1
 40
1
 40
1
 10
1364.384342
 20
2095.106944
 30
0.0
 10
1393.765391
 20
2086.790428
 30
0.0
 10
1430.152560
 20
2064.170188
 30
0.0
 10
1455.092157
 20
2038.722001
 30
0.0
  0
SPLINE
  5
276
100
AcDbEntity
  8
Layer_1
 62
7
100
AcDbSpline
 70
8
 71
3
 72
8
 73
4
 74
0
 40
0
 40
0
 40
0
 40
0
 40
1
 40
1
 40
1
 40
1
 10
1455.092157
 20
2038.722001
 30
0.0
 10
1473.814854
 20
2019.617420
 30
0.0
 10
1498.221199
 20
1980.185993
 30
0.0
 10
1502.980698
 20
1961.349966
 30
0.0
  0
SPLINE
  5
277
100
AcDbEntity
  8
Layer_1
 62
7
100
AcDbSpline
 70
8
 71
3
 72
8
 73
4
 74
0
 40
0
 40
0
 40
0
 40
0
 40
1
 40
1
 40
1
 40
1
 10
1502.980698
 20
1961.349966
 30
0.0
 10
1506.214283
 20
1948.555970
 30
0.0
 10
1511.223796
 20
1947.876394
 30
0.0
 10
1541.893642
 20
1956.086015
 30
0.0
  0
LWPOLYLINE
  5
278
100
AcDbEntity
  8
Layer_1
 62
7
100
AcDbPolyline
 90
2
 70
0
 10
822.840564
 20
1979.196931
 30
0.0
 10
822.839770
 20
1979.207901
 30
0.0
  0
SPLINE
  5
279
100
AcDbEntity
  8
Layer_1
 62
7
100
AcDbSpline
 70
8
 71
3
 72
8
 73
4
 74
0
 40
0
 40
0
 40
0
 40
0
 40
1
 40
1
 40
1
 40
1
 10
1366.425621
 20
1737.495528
 30
0.0
 10
1414.752256
 20
1758.419634
 30
0.0
 10
1450.466169
 20
1813.335809
 30
0.0
 10
1447.376499
 20
1861.968755
 30
0.0
  0
SPLINE
  5
27a
100
AcDbEntity
  8
Layer_1
 62
7
100
AcDbSpline
 70
8
 71
3
 72
8
 73
4
 74
0
 40
0
 40
0
 40
0
 40
0
 40
1
 40
1
 40
1
 40
1
 10
1447.376499
 20
1861.968755
 30
0.0
 10
1446.080559
 20
1882.358503
 30
0.0
 10
1445.727760
 20
1882.818877
 30
0.0
 10
1427.391622
 20
1888.091020
 30
0.0
  0
SPLINE
  5
27b
100
AcDbEntity
  8
Layer_1
 62
7
100
AcDbSpline
 70
8
 71
3
 72
8
 73
4
 74
0
 40
0
 40
0
 40
0
 40
0
 40
1
 40
1
 40
1
 40
1
 10
1427.391622
 20
1888.091020
 30
0.0
 10
1381.254887
 20
1901.359024
 30
0.0
 10
1329.022717
 20
1944.985630
 30
0.0
 10
1307.027515
 20
1988.628650
 30
0.0
  0
SPLINE
  5
27c
100
AcDbEntity
  8
Layer_1
 62
7
100
AcDbSpline
 70
8
 71
3
 72
8
 73
4
 74
0
 40
0
 40
0
 40
0
 40
0
 40
1
 40
1
 40
1
 40
1
 10
1307.027515
 20
1988.628650
 30
0.0
 10
1297.234352
 20
2008.059355
 30
0.0
 10
1286.136291
 20
2039.856564
 30
0.0
 10
1280.865537
 20
2063.586621
 30
0.0
  0
SPLINE
  5
27d
100
AcDbEntity
  8
Layer_1
 62
7
100
AcDbSpline
 70
8
 71
3
 72
8
 73
4
 74
0
 40
0
 40
0
 40
0
 40
0
 40
1
 40
1
 40
1
 40
1
 10
1280.865537
 20
2063.586621
 30
0.0
 10
1278.797357
 20
2072.897811
 30
0.0
 10
1274.521986
 20
2076.328489
 30
0.0
 10
1260.226227
 20
2080.151054
 30
0.0
  0
SPLINE
  5
27e
100
AcDbEntity
  8
Layer_1
 62
7
100
AcDbSpline
 70
8
 71
3
 72
8
 73
4
 74
0
 40
0
 40
0
 40
0
 40
0
 40
1
 40
1
 40
1
 40
1
 10
1260.226227
 20
2080.151054
 30
0.0
 10
1235.376602
 20
2086.796041
 30
0.0
 10
1190.154151
 20
2115.968120
 30
0.0
 10
1175.874294
 20
2134.563004
 30
0.0
  0
SPLINE
  5
27f
100
AcDbEntity
  8
Layer_1
 62
7
100
AcDbSpline
 70
8
 71
3
 72
8
 73
4
 74
0
 40
0
 40
0
 40
0
 40
0
 40
1
 40
1
 40
1
 40
1
 10
1175.874294
 20
2134.563004
 30
0.0
 10
1164.038746
 20
2149.973966
 30
0.0
 10
1164.038746
 20
2149.973966
 30
0.0
 10
1146.047186
 20
2133.083408
 30
0.0
  0
SPLINE
  5
280
100
AcDbEntity
  8
Layer_1
 62
7
100
AcDbSpline
 70
8
 71
3
 72
8
 73
4
 74
0
 40
0
 40
0
 40
0
 40
0
 40
1
 40
1
 40
1
 40
1
 10
1146.047186
 20
2133.083408
 30
0.0
 10
1121.311343
 20
2109.868490
 30
0.0
 10
1102.103667
 20
2096.447019
 30
0.0
 10
1071.425346
 20
2080.942967
 30
0.0
  0
SPLINE
  5
281
100
AcDbEntity
  8
Layer_1
 62
7
100
AcDbSpline
 70
8
 71
3
 72
8
 73
4
 74
0
 40
0
 40
0
 40
0
 40
0
 40
1
 40
1
 40
1
 40
1
 10
1071.425346
 20
2080.942967
 30
0.0
 10
1045.492832
 20
2067.839400
 30
0.0
 10
1045.206562
 20
2067.485921
 30
0.0
 10
1034.852792
 20
2035.990175
 30
0.0
  0
SPLINE
  5
282
100
AcDbEntity
  8
Layer_1
 62
7
100
AcDbSpline
 70
8
 71
3
 72
8
 73
4
 74
0
 40
0
 40
0
 40
0
 40
0
 40
1
 40
1
 40
1
 40
1
 10
1034.852792
 20
2035.990175
 30
0.0
 10
1021.885855
 20
1996.542335
 30
0.0
 10
1003.200177
 20
1967.151052
 30
0.0
 10
973.868167
 20
1940.061496
 30
0.0
  0
SPLINE
  5
283
100
AcDbEntity
  8
Layer_1
 62
7
100
AcDbSpline
 70
8
 71
3
 72
8
 73
4
 74
0
 40
0
 40
0
 40
0
 40
0
 40
1
 40
1
 40
1
 40
1
 10
973.868167
 20
1940.061496
 30
0.0
 10
951.511124
 20
1919.416886
 30
0.0
 10
910.772616
 20
1897.859805
 30
0.0
 10
882.811664
 20
1891.880647
 30
0.0
  0
SPLINE
  5
284
100
AcDbEntity
  8
Layer_1
 62
7
100
AcDbSpline
 70
8
 71
3
 72
8
 73
4
 74
0
 40
0
 40
0
 40
0
 40
0
 40
1
 40
1
 40
1
 40
1
 10
882.811664
 20
1891.880647
 30
0.0
 10
868.527725
 20
1888.828110
 30
0.0
 10
868.461367
 20
1888.696583
 30
0.0
 10
871.174370
 20
1868.646623
 30
0.0
  0
SPLINE
  5
285
100
AcDbEntity
  8
Layer_1
 62
7
100
AcDbSpline
 70
8
 71
3
 72
8
 73
4
 74
0
 40
0
 40
0
 40
0
 40
0
 40
1
 40
1
 40
1
 40
1
 10
871.174370
 20
1868.646623
 30
0.0
 10
881.999115
 20
1788.660401
 30
0.0
 10
914.757635
 20
1749.653772
 30
0.0
 10
982.972655
 20
1735.528063
 30
0.0
  0
SPLINE
  5
286
100
AcDbEntity
  8
Layer_1
 62
7
100
AcDbSpline
 70
8
 71
3
 72
8
 73
4
 74
0
 40
0
 40
0
 40
0
 40
0
 40
1
 40
1
 40
1
 40
1
 10
982.972655
 20
1735.528063
 30
0.0
 10
1017.080577
 20
1728.463834
 30
0.0
 10
1034.616525
 20
1731.275256
 30
0.0
 10
1058.781330
 20
1747.683557
 30
0.0
  0
SPLINE
  5
287
100
AcDbEntity
  8
Layer_1
 62
7
100
AcDbSpline
 70
8
 71
3
 72
8
 73
4
 74
0
 40
0
 40
0
 40
0
 40
0
 40
1
 40
1
 40
1
 40
1
 10
1058.781330
 20
1747.683557
 30
0.0
 10
1076.398378
 20
1759.647231
 30
0.0
 10
1083.384541
 20
1774.690909
 30
0.0
 10
1081.523034
 20
1796.661761
 30
0.0
  0
SPLINE
  5
288
100
AcDbEntity
  8
Layer_1
 62
7
100
AcDbSpline
 70
8
 71
3
 72
8
 73
4
 74
0
 40
0
 40
0
 40
0
 40
0
 40
1
 40
1
 40
1
 40
1
 10
1081.523034
 20
1796.661761
 30
0.0
 10
1080.535276
 20
1808.324028
 30
0.0
 10
1076.839759
 20
1815.448493
 30
0.0
 10
1068.634248
 20
1821.507078
 30
0.0
  0
SPLINE
  5
289
100
AcDbEntity
  8
Layer_1
 62
7
100
AcDbSpline
 70
8
 71
3
 72
8
 73
4
 74
0
 40
0
 40
0
 40
0
 40
0
 40
1
 40
1
 40
1
 40
1
 10
1068.634248
 20
1821.507078
 30
0.0
 10
1058.515130
 20
1828.976831
 30
0.0
 10
1055.214392
 20
1829.371441
 30
0.0
 10
1041.199404
 20
1824.776153
 30
0.0
  0
SPLINE
  5
28a
100
AcDbEntity
  8
Layer_1
 62
7
100
AcDbSpline
 70
8
 71
3
 72
8
 73
4
 74
0
 40
0
 40
0
 40
0
 40
0
 40
1
 40
1
 40
1
 40
1
 10
1041.199404
 20
1824.776153
 30
0.0
 10
1032.437029
 20
1821.904409
 30
0.0
 10
1020.550230
 20
1814.867591
 30
0.0
 10
1014.784038
 20
1809.140602
 30
0.0
  0
SPLINE
  5
28b
100
AcDbEntity
  8
Layer_1
 62
7
100
AcDbSpline
 70
8
 71
3
 72
8
 73
4
 74
0
 40
0
 40
0
 40
0
 40
0
 40
1
 40
1
 40
1
 40
1
 10
1014.784038
 20
1809.140602
 30
0.0
 10
1001.740367
 20
1796.187696
 30
0.0
 10
996.935599
 20
1796.034257
 30
0.0
 10
993.581401
 20
1808.455555
 30
0.0
  0
SPLINE
  5
28c
100
AcDbEntity
  8
Layer_1
 62
7
100
AcDbSpline
 70
8
 71
3
 72
8
 73
4
 74
0
 40
0
 40
0
 40
0
 40
0
 40
1
 40
1
 40
1
 40
1
 10
993.581401
 20
1808.455555
 30
0.0
 10
988.811783
 20
1826.132527
 30
0.0
 10
990.911200
 20
1848.226658
 30
0.0
 10
999.028441
 20
1865.783100
 30
0.0
  0
SPLINE
  5
28d
100
AcDbEntity
  8
Layer_1
 62
7
100
AcDbSpline
 70
8
 71
3
 72
8
 73
4
 74
0
 40
0
 40
0
 40
0
 40
0
 40
1
 40
1
 40
1
 40
1
 10
999.028441
 20
1865.783100
 30
0.0
 10
1011.117009
 20
1891.929998
 30
0.0
 10
1021.842797
 20
1899.177827
 30
0.0
 10
1052.896481
 20
1902.186568
 30
0.0
  0
SPLINE
  5
28e
100
AcDbEntity
  8
Layer_1
 62
7
100
AcDbSpline
 70
8
 71
3
 72
8
 73
4
 74
0
 40
0
 40
0
 40
0
 40
0
 40
1
 40
1
 40
1
 40
1
 10
1052.896481
 20
1902.186568
 30
0.0
 10
1080.137492
 20
1904.817140
 30
0.0
 10
1080.137492
 20
1904.817140
 30
0.0
 10
1068.372157
 20
1912.703386
 30
0.0
  0
SPLINE
  5
28f
100
AcDbEntity
  8
Layer_1
 62
7
100
AcDbSpline
 70
8
 71
3
 72
8
 73
4
 74
0
 40
0
 40
0
 40
0
 40
0
 40
1
 40
1
 40
1
 40
1
 10
1068.372157
 20
1912.703386
 30
0.0
 10
1056.104837
 20
1920.921256
 30
0.0
 10
1038.753679
 20
1951.551134
 30
0.0
 10
1038.753679
 20
1964.989018
 30
0.0
  0
SPLINE
  5
290
100
AcDbEntity
  8
Layer_1
 62
7
100
AcDbSpline
 70
8
 71
3
 72
8
 73
4
 74
0
 40
0
 40
0
 40
0
 40
0
 40
1
 40
1
 40
1
 40
1
 10
1038.753679
 20
1964.989018
 30
0.0
 10
1038.753679
 20
1972.075159
 30
0.0
 10
1042.734049
 20
1972.625957
 30
0.0
 10
1083.404837
 20
1971.162660
 30
0.0
  0
SPLINE
  5
291
100
AcDbEntity
  8
Layer_1
 62
7
100
AcDbSpline
 70
8
 71
3
 72
8
 73
4
 74
0
 40
0
 40
0
 40
0
 40
0
 40
1
 40
1
 40
1
 40
1
 10
1083.404837
 20
1971.162660
 30
0.0
 10
1128.055938
 20
1969.545953
 30
0.0
 10
1128.055938
 20
1969.545953
 30
0.0
 10
1128.808450
 20
1999.263360
 30
0.0
  0
SPLINE
  5
292
100
AcDbEntity
  8
Layer_1
 62
7
100
AcDbSpline
 70
8
 71
3
 72
8
 73
4
 74
0
 40
0
 40
0
 40
0
 40
0
 40
1
 40
1
 40
1
 40
1
 10
1128.808450
 20
1999.263360
 30
0.0
 10
1129.424190
 20
2023.546937
 30
0.0
 10
1131.808205
 20
2032.553970
 30
0.0
 10
1141.877122
 20
2048.627898
 30
0.0
  0
SPLINE
  5
293
100
AcDbEntity
  8
Layer_1
 62
7
100
AcDbSpline
 70
8
 71
3
 72
8
 73
4
 74
0
 40
0
 40
0
 40
0
 40
0
 40
1
 40
1
 40
1
 40
1
 10
1141.877122
 20
2048.627898
 30
0.0
 10
1159.198914
 20
2076.279194
 30
0.0
 10
1167.321965
 20
2080.515532
 30
0.0
 10
1177.015859
 20
2066.951563
 30
0.0
  0
SPLINE
  5
294
100
AcDbEntity
  8
Layer_1
 62
7
100
AcDbSpline
 70
8
 71
3
 72
8
 73
4
 74
0
 40
0
 40
0
 40
0
 40
0
 40
1
 40
1
 40
1
 40
1
 10
1177.015859
 20
2066.951563
 30
0.0
 10
1189.435882
 20
2049.575999
 30
0.0
 10
1200.540292
 20
2010.196700
 30
0.0
 10
1199.092727
 20
1988.664281
 30
0.0
  0
SPLINE
  5
295
100
AcDbEntity
  8
Layer_1
 62
7
100
AcDbSpline
 70
8
 71
3
 72
8
 73
4
 74
0
 40
0
 40
0
 40
0
 40
0
 40
1
 40
1
 40
1
 40
1
 10
1199.092727
 20
1988.664281
 30
0.0
 10
1197.754382
 20
1968.767731
 30
0.0
 10
1197.754382
 20
1968.767731
 30
0.0
 10
1238.049835
 20
1970.866752
 30
0.0
  0
SPLINE
  5
296
100
AcDbEntity
  8
Layer_1
 62
7
100
AcDbSpline
 70
8
 71
3
 72
8
 73
4
 74
0
 40
0
 40
0
 40
0
 40
0
 40
1
 40
1
 40
1
 40
1
 10
1238.049835
 20
1970.866752
 30
0.0
 10
1278.344467
 20
1972.976658
 30
0.0
 10
1278.344467
 20
1972.976658
 30
0.0
 10
1278.344467
 20
1955.677856
 30
0.0
  0
SPLINE
  5
297
100
AcDbEntity
  8
Layer_1
 62
7
100
AcDbSpline
 70
8
 71
3
 72
8
 73
4
 74
0
 40
0
 40
0
 40
0
 40
0
 40
1
 40
1
 40
1
 40
1
 10
1278.344467
 20
1955.677856
 30
0.0
 10
1278.344467
 20
1941.612411
 30
0.0
 10
1275.029726
 20
1934.652355
 30
0.0
 10
1260.549461
 20
1918.312596
 30
0.0
  0
SPLINE
  5
298
100
AcDbEntity
  8
Layer_1
 62
7
100
AcDbSpline
 70
8
 71
3
 72
8
 73
4
 74
0
 40
0
 40
0
 40
0
 40
0
 40
1
 40
1
 40
1
 40
1
 10
1260.549461
 20
1918.312596
 30
0.0
 10
1242.754739
 20
1898.235225
 30
0.0
 10
1242.754739
 20
1898.235225
 30
0.0
 10
1260.980694
 20
1898.235225
 30
0.0
  0
SPLINE
  5
299
100
AcDbEntity
  8
Layer_1
 62
7
100
AcDbSpline
 70
8
 71
3
 72
8
 73
4
 74
0
 40
0
 40
0
 40
0
 40
0
 40
1
 40
1
 40
1
 40
1
 10
1260.980694
 20
1898.235225
 30
0.0
 10
1306.174062
 20
1898.235225
 30
0.0
 10
1332.276626
 20
1864.182806
 30
0.0
 10
1324.069442
 20
1815.933500
 30
0.0
  0
SPLINE
  5
29a
100
AcDbEntity
  8
Layer_1
 62
7
100
AcDbSpline
 70
8
 71
3
 72
8
 73
4
 74
0
 40
0
 40
0
 40
0
 40
0
 40
1
 40
1
 40
1
 40
1
 10
1324.069442
 20
1815.933500
 30
0.0
 10
1320.665865
 20
1795.927392
 30
0.0
 10
1316.415750
 20
1794.623033
 30
0.0
 10
1303.184511
 20
1809.526963
 30
0.0
  0
SPLINE
  5
29b
100
AcDbEntity
  8
Layer_1
 62
7
100
AcDbSpline
 70
8
 71
3
 72
8
 73
4
 74
0
 40
0
 40
0
 40
0
 40
0
 40
1
 40
1
 40
1
 40
1
 10
1303.184511
 20
1809.526963
 30
0.0
 10
1294.416693
 20
1819.405364
 30
0.0
 10
1281.578590
 20
1822.866230
 30
0.0
 10
1260.770705
 20
1820.964500
 30
0.0
  0
SPLINE
  5
29c
100
AcDbEntity
  8
Layer_1
 62
7
100
AcDbSpline
 70
8
 71
3
 72
8
 73
4
 74
0
 40
0
 40
0
 40
0
 40
0
 40
1
 40
1
 40
1
 40
1
 10
1260.770705
 20
1820.964500
 30
0.0
 10
1251.681552
 20
1820.142455
 30
0.0
 10
1239.139272
 20
1798.015414
 30
0.0
 10
1239.139272
 20
1782.815548
 30
0.0
  0
SPLINE
  5
29d
100
AcDbEntity
  8
Layer_1
 62
7
100
AcDbSpline
 70
8
 71
3
 72
8
 73
4
 74
0
 40
0
 40
0
 40
0
 40
0
 40
1
 40
1
 40
1
 40
1
 10
1239.139272
 20
1782.815548
 30
0.0
 10
1239.139272
 20
1767.621180
 30
0.0
 10
1261.400136
 20
1739.539727
 30
0.0
 10
1280.184799
 20
1731.034170
 30
0.0
  0
SPLINE
  5
29e
100
AcDbEntity
  8
Layer_1
 62
7
100
AcDbSpline
 70
8
 71
3
 72
8
 73
4
 74
0
 40
0
 40
0
 40
0
 40
0
 40
1
 40
1
 40
1
 40
1
 10
1280.184799
 20
1731.034170
 30
0.0
 10
1298.092453
 20
1722.925915
 30
0.0
 10
1340.056403
 20
1726.063434
 30
0.0
 10
1366.426188
 20
1737.481809
 30
0.0
  0
LWPOLYLINE
  5
29f
100
AcDbEntity
  8
Layer_1
 62
7
100
AcDbPolyline
 90
2
 70
0
 10
1541.893642
 20
1956.086015
 30
0.0
 10
1541.894436
 20
1956.099848
 30
0.0
  0
SPLINE
  5
2a0
100
AcDbEntity
  8
Layer_1
 62
7
100
AcDbSpline
 70
8
 71
3
 72
8
 73
4
 74
0
 40
0
 40
0
 40
0
 40
0
 40
1
 40
1
 40
1
 40
1
 10
1166.831233
 20
1610.482098
 30
0.0
 10
1173.406118
 20
1620.448202
 30
0.0
 10
1208.625473
 20
1650.365622
 30
0.0
 10
1225.383086
 20
1660.219333
 30
0.0
  0
SPLINE
  5
2a1
100
AcDbEntity
  8
Layer_1
 62
7
100
AcDbSpline
 70
8
 71
3
 72
8
 73
4
 74
0
 40
0
 40
0
 40
0
 40
0
 40
1
 40
1
 40
1
 40
1
 10
1225.383086
 20
1660.219333
 30
0.0
 10
1231.574984
 20
1663.861077
 30
0.0
 10
1229.188247
 20
1667.730216
 30
0.0
 10
1208.645457
 20
1687.349992
 30
0.0
  0
SPLINE
  5
2a2
100
AcDbEntity
  8
Layer_1
 62
7
100
AcDbSpline
 70
8
 71
3
 72
8
 73
4
 74
0
 40
0
 40
0
 40
0
 40
0
 40
1
 40
1
 40
1
 40
1
 10
1208.645457
 20
1687.349992
 30
0.0
 10
1195.467963
 20
1699.935699
 30
0.0
 10
1178.557647
 20
1717.642831
 30
0.0
 10
1171.067089
 20
1726.699158
 30
0.0
  0
SPLINE
  5
2a3
100
AcDbEntity
  8
Layer_1
 62
7
100
AcDbSpline
 70
8
 71
3
 72
8
 73
4
 74
0
 40
0
 40
0
 40
0
 40
0
 40
1
 40
1
 40
1
 40
1
 10
1171.067089
 20
1726.699158
 30
0.0
 10
1157.447958
 20
1743.165002
 30
0.0
 10
1157.447958
 20
1743.165002
 30
0.0
 10
1147.534181
 20
1728.754299
 30
0.0
  0
SPLINE
  5
2a4
100
AcDbEntity
  8
Layer_1
 62
7
100
AcDbSpline
 70
8
 71
3
 72
8
 73
4
 74
0
 40
0
 40
0
 40
0
 40
0
 40
1
 40
1
 40
1
 40
1
 10
1147.534181
 20
1728.754299
 30
0.0
 10
1142.081925
 20
1720.835143
 30
0.0
 10
1127.131790
 20
1703.585635
 30
0.0
 10
1114.311800
 20
1690.421775
 30
0.0
  0
SPLINE
  5
2a5
100
AcDbEntity
  8
Layer_1
 62
7
100
AcDbSpline
 70
8
 71
3
 72
8
 73
4
 74
0
 40
0
 40
0
 40
0
 40
0
 40
1
 40
1
 40
1
 40
1
 10
1114.311800
 20
1690.421775
 30
0.0
 10
1091.002829
 20
1666.486207
 30
0.0
 10
1091.002829
 20
1666.486207
 30
0.0
 10
1122.597928
 20
1633.573738
 30
0.0
  0
SPLINE
  5
2a6
100
AcDbEntity
  8
Layer_1
 62
7
100
AcDbSpline
 70
8
 71
3
 72
8
 73
4
 74
0
 40
0
 40
0
 40
0
 40
0
 40
1
 40
1
 40
1
 40
1
 10
1122.597928
 20
1633.573738
 30
0.0
 10
1139.975109
 20
1615.471996
 30
0.0
 10
1155.437604
 20
1600.447508
 30
0.0
 10
1156.959124
 20
1600.181732
 30
0.0
  0
SPLINE
  5
2a7
100
AcDbEntity
  8
Layer_1
 62
7
100
AcDbSpline
 70
8
 71
3
 72
8
 73
4
 74
0
 40
0
 40
0
 40
0
 40
0
 40
1
 40
1
 40
1
 40
1
 10
1156.959124
 20
1600.181732
 30
0.0
 10
1158.480361
 20
1599.907623
 30
0.0
 10
1162.922947
 20
1604.546848
 30
0.0
 10
1166.831233
 20
1610.471156
 30
0.0
  0
LWPOLYLINE
  5
2a8
100
AcDbEntity
  8
Layer_1
 62
7
100
AcDbPolyline
 90
2
 70
0
 10
1366.426188
 20
1737.481809
 30
0.0
 10
1366.425621
 20
1737.495528
 30
0.0
  0
SPLINE
  5
2a9
100
AcDbEntity
  8
Layer_1
 62
7
100
AcDbSpline
 70
8
 71
3
 72
8
 73
4
 74
0
 40
0
 40
0
 40
0
 40
0
 40
1
 40
1
 40
1
 40
1
 10
781.592757
 20
1524.716814
 30
0.0
 10
806.232676
 20
1533.712906
 30
0.0
 10
818.299559
 20
1544.070814
 30
0.0
 10
836.201459
 20
1571.587834
 30
0.0
  0
SPLINE
  5
2aa
100
AcDbEntity
  8
Layer_1
 62
7
100
AcDbSpline
 70
8
 71
3
 72
8
 73
4
 74
0
 40
0
 40
0
 40
0
 40
0
 40
1
 40
1
 40
1
 40
1
 10
836.201459
 20
1571.587834
 30
0.0
 10
852.739218
 20
1597.008582
 30
0.0
 10
860.149727
 20
1627.339802
 30
0.0
 10
860.149727
 20
1669.607257
 30
0.0
  0
SPLINE
  5
2ab
100
AcDbEntity
  8
Layer_1
 62
7
100
AcDbSpline
 70
8
 71
3
 72
8
 73
4
 74
0
 40
0
 40
0
 40
0
 40
0
 40
1
 40
1
 40
1
 40
1
 10
860.149727
 20
1669.607257
 30
0.0
 10
860.149727
 20
1705.585954
 30
0.0
 10
852.871681
 20
1735.760985
 30
0.0
 10
830.307850
 20
1793.324202
 30
0.0
  0
SPLINE
  5
2ac
100
AcDbEntity
  8
Layer_1
 62
7
100
AcDbSpline
 70
8
 71
3
 72
8
 73
4
 74
0
 40
0
 40
0
 40
0
 40
0
 40
1
 40
1
 40
1
 40
1
 10
830.307850
 20
1793.324202
 30
0.0
 10
821.212943
 20
1816.528122
 30
0.0
 10
811.007765
 20
1847.914309
 30
0.0
 10
807.629982
 20
1863.075794
 30
0.0
  0
SPLINE
  5
2ad
100
AcDbEntity
  8
Layer_1
 62
7
100
AcDbSpline
 70
8
 71
3
 72
8
 73
4
 74
0
 40
0
 40
0
 40
0
 40
0
 40
1
 40
1
 40
1
 40
1
 10
807.629982
 20
1863.075794
 30
0.0
 10
803.946796
 20
1879.607374
 30
0.0
 10
798.843796
 20
1891.546415
 30
0.0
 10
794.880717
 20
1892.905567
 30
0.0
  0
SPLINE
  5
2ae
100
AcDbEntity
  8
Layer_1
 62
7
100
AcDbSpline
 70
8
 71
3
 72
8
 73
4
 74
0
 40
0
 40
0
 40
0
 40
0
 40
1
 40
1
 40
1
 40
1
 10
794.880717
 20
1892.905567
 30
0.0
 10
791.246314
 20
1894.165989
 30
0.0
 10
768.669643
 20
1903.477207
 30
0.0
 10
744.710972
 20
1913.626883
 30
0.0
  0
SPLINE
  5
2af
100
AcDbEntity
  8
Layer_1
 62
7
100
AcDbSpline
 70
8
 71
3
 72
8
 73
4
 74
0
 40
0
 40
0
 40
0
 40
0
 40
1
 40
1
 40
1
 40
1
 10
744.710972
 20
1913.626883
 30
0.0
 10
670.985870
 20
1944.856825
 30
0.0
 10
642.281137
 20
1951.860761
 30
0.0
 10
587.887867
 20
1951.893671
 30
0.0
  0
SPLINE
  5
2b0
100
AcDbEntity
  8
Layer_1
 62
7
100
AcDbSpline
 70
8
 71
3
 72
8
 73
4
 74
0
 40
0
 40
0
 40
0
 40
0
 40
1
 40
1
 40
1
 40
1
 10
587.887867
 20
1951.893671
 30
0.0
 10
543.513086
 20
1951.893671
 30
0.0
 10
537.845341
 20
1950.934543
 30
0.0
 10
511.241670
 20
1938.642080
 30
0.0
  0
SPLINE
  5
2b1
100
AcDbEntity
  8
Layer_1
 62
7
100
AcDbSpline
 70
8
 71
3
 72
8
 73
4
 74
0
 40
0
 40
0
 40
0
 40
0
 40
1
 40
1
 40
1
 40
1
 10
511.241670
 20
1938.642080
 30
0.0
 10
495.441399
 20
1931.336708
 30
0.0
 10
475.322217
 20
1918.422183
 30
0.0
 10
466.532458
 20
1909.944036
 30
0.0
  0
SPLINE
  5
2b2
100
AcDbEntity
  8
Layer_1
 62
7
100
AcDbSpline
 70
8
 71
3
 72
8
 73
4
 74
0
 40
0
 40
0
 40
0
 40
0
 40
1
 40
1
 40
1
 40
1
 10
466.532458
 20
1909.944036
 30
0.0
 10
419.097346
 20
1864.191054
 30
0.0
 10
415.152664
 20
1778.954629
 30
0.0
 10
458.607661
 20
1738.714933
 30
0.0
  0
SPLINE
  5
2b3
100
AcDbEntity
  8
Layer_1
 62
7
100
AcDbSpline
 70
8
 71
3
 72
8
 73
4
 74
0
 40
0
 40
0
 40
0
 40
0
 40
1
 40
1
 40
1
 40
1
 10
458.607661
 20
1738.714933
 30
0.0
 10
486.482781
 20
1712.902296
 30
0.0
 10
550.406018
 20
1715.360267
 30
0.0
 10
569.893870
 20
1742.995094
 30
0.0
  0
SPLINE
  5
2b4
100
AcDbEntity
  8
Layer_1
 62
7
100
AcDbSpline
 70
8
 71
3
 72
8
 73
4
 74
0
 40
0
 40
0
 40
0
 40
0
 40
1
 40
1
 40
1
 40
1
 10
569.893870
 20
1742.995094
 30
0.0
 10
582.787333
 20
1761.277629
 30
0.0
 10
576.383234
 20
1795.480738
 30
0.0
 10
557.647129
 20
1808.403483
 30
0.0
  0
SPLINE
  5
2b5
100
AcDbEntity
  8
Layer_1
 62
7
100
AcDbSpline
 70
8
 71
3
 72
8
 73
4
 74
0
 40
0
 40
0
 40
0
 40
0
 40
1
 40
1
 40
1
 40
1
 10
557.647129
 20
1808.403483
 30
0.0
 10
543.438818
 20
1818.205122
 30
0.0
 10
520.366709
 20
1804.915178
 30
0.0
 10
520.366709
 20
1786.931357
 30
0.0
  0
SPLINE
  5
2b6
100
AcDbEntity
  8
Layer_1
 62
7
100
AcDbSpline
 70
8
 71
3
 72
8
 73
4
 74
0
 40
0
 40
0
 40
0
 40
0
 40
1
 40
1
 40
1
 40
1
 10
520.366709
 20
1786.931357
 30
0.0
 10
520.366709
 20
1779.376622
 30
0.0
 10
518.290025
 20
1776.866635
 30
0.0
 10
512.896730
 20
1777.896912
 30
0.0
  0
SPLINE
  5
2b7
100
AcDbEntity
  8
Layer_1
 62
7
100
AcDbSpline
 70
8
 71
3
 72
8
 73
4
 74
0
 40
0
 40
0
 40
0
 40
0
 40
1
 40
1
 40
1
 40
1
 10
512.896730
 20
1777.896912
 30
0.0
 10
502.256747
 20
1779.924642
 30
0.0
 10
485.517218
 20
1806.394915
 30
0.0
 10
485.517218
 20
1821.180981
 30
0.0
  0
SPLINE
  5
2b8
100
AcDbEntity
  8
Layer_1
 62
7
100
AcDbSpline
 70
8
 71
3
 72
8
 73
4
 74
0
 40
0
 40
0
 40
0
 40
0
 40
1
 40
1
 40
1
 40
1
 10
485.517218
 20
1821.180981
 30
0.0
 10
485.517218
 20
1835.641007
 30
0.0
 10
498.343558
 20
1862.599008
 30
0.0
 10
510.102060
 20
1872.847358
 30
0.0
  0
SPLINE
  5
2b9
100
AcDbEntity
  8
Layer_1
 62
7
100
AcDbSpline
 70
8
 71
3
 72
8
 73
4
 74
0
 40
0
 40
0
 40
0
 40
0
 40
1
 40
1
 40
1
 40
1
 10
510.102060
 20
1872.847358
 30
0.0
 10
546.477182
 20
1904.559557
 30
0.0
 10
614.098402
 20
1900.476686
 30
0.0
 10
642.300611
 20
1864.865131
 30
0.0
  0
SPLINE
  5
2ba
100
AcDbEntity
  8
Layer_1
 62
7
100
AcDbSpline
 70
8
 71
3
 72
8
 73
4
 74
0
 40
0
 40
0
 40
0
 40
0
 40
1
 40
1
 40
1
 40
1
 10
642.300611
 20
1864.865131
 30
0.0
 10
650.478711
 20
1854.540076
 30
0.0
 10
652.501140
 20
1853.778324
 30
0.0
 10
656.869969
 20
1859.390198
 30
0.0
  0
SPLINE
  5
2bb
100
AcDbEntity
  8
Layer_1
 62
7
100
AcDbSpline
 70
8
 71
3
 72
8
 73
4
 74
0
 40
0
 40
0
 40
0
 40
0
 40
1
 40
1
 40
1
 40
1
 10
656.869969
 20
1859.390198
 30
0.0
 10
671.416536
 20
1878.067343
 30
0.0
 10
705.112981
 20
1881.341889
 30
0.0
 10
733.986574
 20
1866.879170
 30
0.0
  0
SPLINE
  5
2bc
100
AcDbEntity
  8
Layer_1
 62
7
100
AcDbSpline
 70
8
 71
3
 72
8
 73
4
 74
0
 40
0
 40
0
 40
0
 40
0
 40
1
 40
1
 40
1
 40
1
 10
733.986574
 20
1866.879170
 30
0.0
 10
758.217455
 20
1854.742866
 30
0.0
 10
773.872167
 20
1826.601121
 30
0.0
 10
774.362900
 20
1794.296965
 30
0.0
  0
SPLINE
  5
2bd
100
AcDbEntity
  8
Layer_1
 62
7
100
AcDbSpline
 70
8
 71
3
 72
8
 73
4
 74
0
 40
0
 40
0
 40
0
 40
0
 40
1
 40
1
 40
1
 40
1
 10
774.362900
 20
1794.296965
 30
0.0
 10
774.731601
 20
1769.996947
 30
0.0
 10
765.908706
 20
1754.605260
 30
0.0
 10
743.425776
 20
1740.326113
 30
0.0
  0
SPLINE
  5
2be
100
AcDbEntity
  8
Layer_1
 62
7
100
AcDbSpline
 70
8
 71
3
 72
8
 73
4
 74
0
 40
0
 40
0
 40
0
 40
0
 40
1
 40
1
 40
1
 40
1
 10
743.425776
 20
1740.326113
 30
0.0
 10
726.952732
 20
1729.864088
 30
0.0
 10
726.310431
 20
1726.907391
 30
0.0
 10
739.781254
 20
1723.550669
 30
0.0
  0
SPLINE
  5
2bf
100
AcDbEntity
  8
Layer_1
 62
7
100
AcDbSpline
 70
8
 71
3
 72
8
 73
4
 74
0
 40
0
 40
0
 40
0
 40
0
 40
1
 40
1
 40
1
 40
1
 10
739.781254
 20
1723.550669
 30
0.0
 10
755.383299
 20
1719.659619
 30
0.0
 10
783.908458
 20
1688.917376
 30
0.0
 10
789.685336
 20
1669.768944
 30
0.0
  0
SPLINE
  5
2c0
100
AcDbEntity
  8
Layer_1
 62
7
100
AcDbSpline
 70
8
 71
3
 72
8
 73
4
 74
0
 40
0
 40
0
 40
0
 40
0
 40
1
 40
1
 40
1
 40
1
 10
789.685336
 20
1669.768944
 30
0.0
 10
801.645892
 20
1630.118371
 30
0.0
 10
792.711935
 20
1600.801016
 30
0.0
 10
760.661253
 20
1574.517092
 30
0.0
  0
SPLINE
  5
2c1
100
AcDbEntity
  8
Layer_1
 62
7
100
AcDbSpline
 70
8
 71
3
 72
8
 73
4
 74
0
 40
0
 40
0
 40
0
 40
0
 40
1
 40
1
 40
1
 40
1
 10
760.661253
 20
1574.517092
 30
0.0
 10
742.532865
 20
1559.651542
 30
0.0
 10
742.532865
 20
1559.651542
 30
0.0
 10
742.323697
 20
1576.435234
 30
0.0
  0
SPLINE
  5
2c2
100
AcDbEntity
  8
Layer_1
 62
7
100
AcDbSpline
 70
8
 71
3
 72
8
 73
4
 74
0
 40
0
 40
0
 40
0
 40
0
 40
1
 40
1
 40
1
 40
1
 10
742.323697
 20
1576.435234
 30
0.0
 10
741.890536
 20
1611.117850
 30
0.0
 10
713.717383
 20
1642.493039
 30
0.0
 10
688.623780
 20
1636.237163
 30
0.0
  0
SPLINE
  5
2c3
100
AcDbEntity
  8
Layer_1
 62
7
100
AcDbSpline
 70
8
 71
3
 72
8
 73
4
 74
0
 40
0
 40
0
 40
0
 40
0
 40
1
 40
1
 40
1
 40
1
 10
688.623780
 20
1636.237163
 30
0.0
 10
673.392080
 20
1632.439287
 30
0.0
 10
656.217463
 20
1614.427998
 30
0.0
 10
654.505966
 20
1600.458478
 30
0.0
  0
SPLINE
  5
2c4
100
AcDbEntity
  8
Layer_1
 62
7
100
AcDbSpline
 70
8
 71
3
 72
8
 73
4
 74
0
 40
0
 40
0
 40
0
 40
0
 40
1
 40
1
 40
1
 40
1
 10
654.505966
 20
1600.458478
 30
0.0
 10
651.570415
 20
1576.492749
 30
0.0
 10
676.252513
 20
1539.793402
 30
0.0
 10
705.505012
 20
1524.626446
 30
0.0
  0
SPLINE
  5
2c5
100
AcDbEntity
  8
Layer_1
 62
7
100
AcDbSpline
 70
8
 71
3
 72
8
 73
4
 74
0
 40
0
 40
0
 40
0
 40
0
 40
1
 40
1
 40
1
 40
1
 10
705.505012
 20
1524.626446
 30
0.0
 10
722.723736
 20
1515.701617
 30
0.0
 10
757.011515
 20
1515.739970
 30
0.0
 10
781.592757
 20
1524.626446
 30
0.0
  0
LWPOLYLINE
  5
2c6
100
AcDbEntity
  8
Layer_1
 62
7
100
AcDbPolyline
 90
2
 70
0
 10
1166.831233
 20
1610.471156
 30
0.0
 10
1166.831233
 20
1610.482098
 30
0.0
  0
SPLINE
  5
2c7
100
AcDbEntity
  8
Layer_1
 62
7
100
AcDbSpline
 70
8
 71
3
 72
8
 73
4
 74
0
 40
0
 40
0
 40
0
 40
0
 40
1
 40
1
 40
1
 40
1
 10
1599.187653
 20
1515.296065
 30
0.0
 10
1613.768775
 20
1519.598138
 30
0.0
 10
1627.195236
 20
1527.870830
 30
0.0
 10
1639.558508
 20
1540.174236
 30
0.0
  0
SPLINE
  5
2c8
100
AcDbEntity
  8
Layer_1
 62
7
100
AcDbSpline
 70
8
 71
3
 72
8
 73
4
 74
0
 40
0
 40
0
 40
0
 40
0
 40
1
 40
1
 40
1
 40
1
 10
1639.558508
 20
1540.174236
 30
0.0
 10
1657.266292
 20
1557.796442
 30
0.0
 10
1657.994709
 20
1559.550176
 30
0.0
 10
1656.089634
 20
1579.983776
 30
0.0
  0
SPLINE
  5
2c9
100
AcDbEntity
  8
Layer_1
 62
7
100
AcDbSpline
 70
8
 71
3
 72
8
 73
4
 74
0
 40
0
 40
0
 40
0
 40
0
 40
1
 40
1
 40
1
 40
1
 10
1656.089634
 20
1579.983776
 30
0.0
 10
1654.490813
 20
1597.134639
 30
0.0
 10
1651.387735
 20
1603.765905
 30
0.0
 10
1640.399545
 20
1613.515529
 30
0.0
  0
SPLINE
  5
2ca
100
AcDbEntity
  8
Layer_1
 62
7
100
AcDbSpline
 70
8
 71
3
 72
8
 73
4
 74
0
 40
0
 40
0
 40
0
 40
0
 40
1
 40
1
 40
1
 40
1
 10
1640.399545
 20
1613.515529
 30
0.0
 10
1625.760030
 20
1626.506759
 30
0.0
 10
1616.707132
 20
1628.211170
 30
0.0
 10
1598.610039
 20
1621.377113
 30
0.0
  0
SPLINE
  5
2cb
100
AcDbEntity
  8
Layer_1
 62
7
100
AcDbSpline
 70
8
 71
3
 72
8
 73
4
 74
0
 40
0
 40
0
 40
0
 40
0
 40
1
 40
1
 40
1
 40
1
 10
1598.610039
 20
1621.377113
 30
0.0
 10
1586.543383
 20
1616.820178
 30
0.0
 10
1570.476627
 20
1587.944034
 30
0.0
 10
1570.305274
 20
1570.505484
 30
0.0
  0
SPLINE
  5
2cc
100
AcDbEntity
  8
Layer_1
 62
7
100
AcDbSpline
 70
8
 71
3
 72
8
 73
4
 74
0
 40
0
 40
0
 40
0
 40
0
 40
1
 40
1
 40
1
 40
1
 10
1570.305274
 20
1570.505484
 30
0.0
 10
1570.066597
 20
1546.416420
 30
0.0
 10
1535.426983
 20
1575.056892
 30
0.0
 10
1526.500482
 20
1606.722574
 30
0.0
  0
SPLINE
  5
2cd
100
AcDbEntity
  8
Layer_1
 62
7
100
AcDbSpline
 70
8
 71
3
 72
8
 73
4
 74
0
 40
0
 40
0
 40
0
 40
0
 40
1
 40
1
 40
1
 40
1
 10
1526.500482
 20
1606.722574
 30
0.0
 10
1516.157087
 20
1643.416479
 30
0.0
 10
1537.705181
 20
1689.180431
 30
0.0
 10
1576.362299
 20
1712.625550
 30
0.0
  0
SPLINE
  5
2ce
100
AcDbEntity
  8
Layer_1
 62
7
100
AcDbSpline
 70
8
 71
3
 72
8
 73
4
 74
0
 40
0
 40
0
 40
0
 40
0
 40
1
 40
1
 40
1
 40
1
 10
1576.362299
 20
1712.625550
 30
0.0
 10
1589.049373
 20
1720.319976
 30
0.0
 10
1589.049373
 20
1720.319976
 30
0.0
 10
1573.834398
 20
1729.236556
 30
0.0
  0
SPLINE
  5
2cf
100
AcDbEntity
  8
Layer_1
 62
7
100
AcDbSpline
 70
8
 71
3
 72
8
 73
4
 74
0
 40
0
 40
0
 40
0
 40
0
 40
1
 40
1
 40
1
 40
1
 10
1573.834398
 20
1729.236556
 30
0.0
 10
1549.202699
 20
1743.669171
 30
0.0
 10
1541.204967
 20
1767.706106
 30
0.0
 10
1549.003651
 20
1803.868459
 30
0.0
  0
SPLINE
  5
2d0
100
AcDbEntity
  8
Layer_1
 62
7
100
AcDbSpline
 70
8
 71
3
 72
8
 73
4
 74
0
 40
0
 40
0
 40
0
 40
0
 40
1
 40
1
 40
1
 40
1
 10
1549.003651
 20
1803.868459
 30
0.0
 10
1558.545949
 20
1848.114349
 30
0.0
 10
1602.334356
 20
1875.899894
 30
0.0
 10
1639.346024
 20
1861.190562
 30
0.0
  0
SPLINE
  5
2d1
100
AcDbEntity
  8
Layer_1
 62
7
100
AcDbSpline
 70
8
 71
3
 72
8
 73
4
 74
0
 40
0
 40
0
 40
0
 40
0
 40
1
 40
1
 40
1
 40
1
 10
1639.346024
 20
1861.190562
 30
0.0
 10
1648.954397
 20
1857.370689
 30
0.0
 10
1660.097699
 20
1849.273433
 30
0.0
 10
1664.109335
 20
1843.192936
 30
0.0
  0
SPLINE
  5
2d2
100
AcDbEntity
  8
Layer_1
 62
7
100
AcDbSpline
 70
8
 71
3
 72
8
 73
4
 74
0
 40
0
 40
0
 40
0
 40
0
 40
1
 40
1
 40
1
 40
1
 10
1664.109335
 20
1843.192936
 30
0.0
 10
1671.403311
 20
1832.136261
 30
0.0
 10
1671.403311
 20
1832.136261
 30
0.0
 10
1682.203395
 20
1845.850976
 30
0.0
  0
SPLINE
  5
2d3
100
AcDbEntity
  8
Layer_1
 62
7
100
AcDbSpline
 70
8
 71
3
 72
8
 73
4
 74
0
 40
0
 40
0
 40
0
 40
0
 40
1
 40
1
 40
1
 40
1
 10
1682.203395
 20
1845.850976
 30
0.0
 10
1695.778135
 20
1863.078544
 30
0.0
 10
1722.073398
 20
1876.623294
 30
0.0
 10
1741.942281
 20
1876.623294
 30
0.0
  0
SPLINE
  5
2d4
100
AcDbEntity
  8
Layer_1
 62
7
100
AcDbSpline
 70
8
 71
3
 72
8
 73
4
 74
0
 40
0
 40
0
 40
0
 40
0
 40
1
 40
1
 40
1
 40
1
 10
1741.942281
 20
1876.623294
 30
0.0
 10
1764.888249
 20
1876.623294
 30
0.0
 10
1803.612010
 20
1860.565779
 30
0.0
 10
1816.039430
 20
1845.897521
 30
0.0
  0
SPLINE
  5
2d5
100
AcDbEntity
  8
Layer_1
 62
7
100
AcDbSpline
 70
8
 71
3
 72
8
 73
4
 74
0
 40
0
 40
0
 40
0
 40
0
 40
1
 40
1
 40
1
 40
1
 10
1816.039430
 20
1845.897521
 30
0.0
 10
1831.310588
 20
1827.869763
 30
0.0
 10
1836.887086
 20
1804.824753
 30
0.0
 10
1831.147228
 20
1783.464963
 30
0.0
  0
SPLINE
  5
2d6
100
AcDbEntity
  8
Layer_1
 62
7
100
AcDbSpline
 70
8
 71
3
 72
8
 73
4
 74
0
 40
0
 40
0
 40
0
 40
0
 40
1
 40
1
 40
1
 40
1
 10
1831.147228
 20
1783.464963
 30
0.0
 10
1823.102356
 20
1753.525660
 30
0.0
 10
1803.788579
 20
1745.924352
 30
0.0
 10
1799.678213
 20
1771.082075
 30
0.0
  0
SPLINE
  5
2d7
100
AcDbEntity
  8
Layer_1
 62
7
100
AcDbSpline
 70
8
 71
3
 72
8
 73
4
 74
0
 40
0
 40
0
 40
0
 40
0
 40
1
 40
1
 40
1
 40
1
 10
1799.678213
 20
1771.082075
 30
0.0
 10
1796.783792
 20
1788.797399
 30
0.0
 10
1786.514211
 20
1798.467539
 30
0.0
 10
1770.594659
 20
1798.467539
 30
0.0
  0
SPLINE
  5
2d8
100
AcDbEntity
  8
Layer_1
 62
7
100
AcDbSpline
 70
8
 71
3
 72
8
 73
4
 74
0
 40
0
 40
0
 40
0
 40
0
 40
1
 40
1
 40
1
 40
1
 10
1770.594659
 20
1798.467539
 30
0.0
 10
1752.435629
 20
1798.467539
 30
0.0
 10
1743.393899
 20
1788.210997
 30
0.0
 10
1741.412091
 20
1765.363306
 30
0.0
  0
SPLINE
  5
2d9
100
AcDbEntity
  8
Layer_1
 62
7
100
AcDbSpline
 70
8
 71
3
 72
8
 73
4
 74
0
 40
0
 40
0
 40
0
 40
0
 40
1
 40
1
 40
1
 40
1
 10
1741.412091
 20
1765.363306
 30
0.0
 10
1738.125300
 20
1727.471909
 30
0.0
 10
1764.585907
 20
1703.410284
 30
0.0
 10
1809.243046
 20
1703.681559
 30
0.0
  0
SPLINE
  5
2da
100
AcDbEntity
  8
Layer_1
 62
7
100
AcDbSpline
 70
8
 71
3
 72
8
 73
4
 74
0
 40
0
 40
0
 40
0
 40
0
 40
1
 40
1
 40
1
 40
1
 10
1809.243046
 20
1703.681559
 30
0.0
 10
1870.152553
 20
1704.037760
 30
0.0
 10
1909.486809
 20
1766.272970
 30
0.0
 10
1890.385234
 20
1832.043115
 30
0.0
  0
SPLINE
  5
2db
100
AcDbEntity
  8
Layer_1
 62
7
100
AcDbSpline
 70
8
 71
3
 72
8
 73
4
 74
0
 40
0
 40
0
 40
0
 40
0
 40
1
 40
1
 40
1
 40
1
 10
1890.385234
 20
1832.043115
 30
0.0
 10
1880.047366
 20
1867.640979
 30
0.0
 10
1855.840296
 20
1897.758410
 30
0.0
 10
1824.039912
 20
1914.594146
 30
0.0
  0
SPLINE
  5
2dc
100
AcDbEntity
  8
Layer_1
 62
7
100
AcDbSpline
 70
8
 71
3
 72
8
 73
4
 74
0
 40
0
 40
0
 40
0
 40
0
 40
1
 40
1
 40
1
 40
1
 10
1824.039912
 20
1914.594146
 30
0.0
 10
1755.650788
 20
1950.797602
 30
0.0
 10
1682.354453
 20
1948.309470
 30
0.0
 10
1586.787388
 20
1906.537992
 30
0.0
  0
SPLINE
  5
2dd
100
AcDbEntity
  8
Layer_1
 62
7
100
AcDbSpline
 70
8
 71
3
 72
8
 73
4
 74
0
 40
0
 40
0
 40
0
 40
0
 40
1
 40
1
 40
1
 40
1
 10
1586.787388
 20
1906.537992
 30
0.0
 10
1564.960479
 20
1896.999379
 30
0.0
 10
1540.100705
 20
1887.748482
 30
0.0
 10
1531.543671
 20
1885.983807
 30
0.0
  0
SPLINE
  5
2de
100
AcDbEntity
  8
Layer_1
 62
7
100
AcDbSpline
 70
8
 71
3
 72
8
 73
4
 74
0
 40
0
 40
0
 40
0
 40
0
 40
1
 40
1
 40
1
 40
1
 10
1531.543671
 20
1885.983807
 30
0.0
 10
1519.055107
 20
1883.408028
 30
0.0
 10
1515.367271
 20
1880.245819
 30
0.0
 10
1512.854960
 20
1869.961923
 30
0.0
  0
SPLINE
  5
2df
100
AcDbEntity
  8
Layer_1
 62
7
100
AcDbSpline
 70
8
 71
3
 72
8
 73
4
 74
0
 40
0
 40
0
 40
0
 40
0
 40
1
 40
1
 40
1
 40
1
 10
1512.854960
 20
1869.961923
 30
0.0
 10
1500.656153
 20
1820.035589
 30
0.0
 10
1494.447559
 20
1799.185439
 30
0.0
 10
1478.118685
 20
1753.314621
 30
0.0
  0
SPLINE
  5
2e0
100
AcDbEntity
  8
Layer_1
 62
7
100
AcDbSpline
 70
8
 71
3
 72
8
 73
4
 74
0
 40
0
 40
0
 40
0
 40
0
 40
1
 40
1
 40
1
 40
1
 10
1478.118685
 20
1753.314621
 30
0.0
 10
1460.411156
 20
1703.569194
 30
0.0
 10
1459.627095
 20
1699.220491
 30
0.0
 10
1459.405030
 20
1649.475064
 30
0.0
  0
SPLINE
  5
2e1
100
AcDbEntity
  8
Layer_1
 62
7
100
AcDbSpline
 70
8
 71
3
 72
8
 73
4
 74
0
 40
0
 40
0
 40
0
 40
0
 40
1
 40
1
 40
1
 40
1
 10
1459.405030
 20
1649.475064
 30
0.0
 10
1459.202070
 20
1604.042679
 30
0.0
 10
1460.368126
 20
1595.334332
 30
0.0
 10
1468.734588
 20
1579.761824
 30
0.0
  0
SPLINE
  5
2e2
100
AcDbEntity
  8
Layer_1
 62
7
100
AcDbSpline
 70
8
 71
3
 72
8
 73
4
 74
0
 40
0
 40
0
 40
0
 40
0
 40
1
 40
1
 40
1
 40
1
 10
1468.734588
 20
1579.761824
 30
0.0
 10
1487.149161
 20
1545.492952
 30
0.0
 10
1536.679326
 20
1510.402091
 30
0.0
 10
1568.330041
 20
1509.201877
 30
0.0
  0
SPLINE
  5
2e3
100
AcDbEntity
  8
Layer_1
 62
7
100
AcDbSpline
 70
8
 71
3
 72
8
 73
4
 74
0
 40
0
 40
0
 40
0
 40
0
 40
1
 40
1
 40
1
 40
1
 10
1568.330041
 20
1509.201877
 30
0.0
 10
1573.285810
 20
1508.927768
 30
0.0
 10
1587.171737
 20
1511.750245
 30
0.0
 10
1599.187653
 20
1515.304286
 30
0.0
  0
LWPOLYLINE
  5
2e4
100
AcDbEntity
  8
Layer_1
 62
7
100
AcDbPolyline
 90
2
 70
0
 10
781.592757
 20
1524.626446
 30
0.0
 10
781.592757
 20
1524.716814
 30
0.0
  0
SPLINE
  5
2e5
100
AcDbEntity
  8
Layer_1
 62
7
100
AcDbSpline
 70
8
 71
3
 72
8
 73
4
 74
0
 40
0
 40
0
 40
0
 40
0
 40
1
 40
1
 40
1
 40
1
 10
1173.768555
 20
1332.111480
 30
0.0
 10
1180.971285
 20
1341.987131
 30
0.0
 10
1186.864355
 20
1353.882292
 30
0.0
 10
1186.864355
 20
1358.548843
 30
0.0
  0
SPLINE
  5
2e6
100
AcDbEntity
  8
Layer_1
 62
7
100
AcDbSpline
 70
8
 71
3
 72
8
 73
4
 74
0
 40
0
 40
0
 40
0
 40
0
 40
1
 40
1
 40
1
 40
1
 10
1186.864355
 20
1358.548843
 30
0.0
 10
1186.864355
 20
1367.764080
 30
0.0
 10
1160.860011
 20
1410.278148
 30
0.0
 10
1156.397413
 20
1408.354563
 30
0.0
  0
SPLINE
  5
2e7
100
AcDbEntity
  8
Layer_1
 62
7
100
AcDbSpline
 70
8
 71
3
 72
8
 73
4
 74
0
 40
0
 40
0
 40
0
 40
0
 40
1
 40
1
 40
1
 40
1
 10
1156.397413
 20
1408.354563
 30
0.0
 10
1154.892617
 20
1407.696927
 30
0.0
 10
1146.429636
 20
1399.153017
 30
0.0
 10
1137.591377
 20
1389.345851
 30
0.0
  0
SPLINE
  5
2e8
100
AcDbEntity
  8
Layer_1
 62
7
100
AcDbSpline
 70
8
 71
3
 72
8
 73
4
 74
0
 40
0
 40
0
 40
0
 40
0
 40
1
 40
1
 40
1
 40
1
 10
1137.591377
 20
1389.345851
 30
0.0
 10
1115.778470
 20
1365.141729
 30
0.0
 10
1116.235215
 20
1352.284747
 30
0.0
 10
1139.671065
 20
1330.796180
 30
0.0
  0
SPLINE
  5
2e9
100
AcDbEntity
  8
Layer_1
 62
7
100
AcDbSpline
 70
8
 71
3
 72
8
 73
4
 74
0
 40
0
 40
0
 40
0
 40
0
 40
1
 40
1
 40
1
 40
1
 10
1139.671065
 20
1330.796180
 30
0.0
 10
1149.653356
 20
1321.643928
 30
0.0
 10
1158.462305
 20
1314.154957
 30
0.0
 10
1159.246649
 20
1314.154957
 30
0.0
  0
SPLINE
  5
2ea
100
AcDbEntity
  8
Layer_1
 62
7
100
AcDbSpline
 70
8
 71
3
 72
8
 73
4
 74
0
 40
0
 40
0
 40
0
 40
0
 40
1
 40
1
 40
1
 40
1
 10
1159.246649
 20
1314.154957
 30
0.0
 10
1160.030426
 20
1314.154957
 30
0.0
 10
1166.565854
 20
1322.235800
 30
0.0
 10
1173.768555
 20
1332.111480
 30
0.0
  0
LWPOLYLINE
  5
2eb
100
AcDbEntity
  8
Layer_1
 62
7
100
AcDbPolyline
 90
2
 70
0
 10
1599.187653
 20
1515.304286
 30
0.0
 10
1599.187653
 20
1515.296065
 30
0.0
  0
SPLINE
  5
2ec
100
AcDbEntity
  8
Layer_1
 62
7
100
AcDbSpline
 70
8
 71
3
 72
8
 73
4
 74
0
 40
0
 40
0
 40
0
 40
0
 40
1
 40
1
 40
1
 40
1
 10
1141.124327
 20
1315.681267
 30
0.0
 10
1106.181917
 20
1351.717536
 30
0.0
 10
1105.118446
 20
1363.437318
 30
0.0
 10
1133.501079
 20
1399.668156
 30
0.0
  0
SPLINE
  5
2ed
100
AcDbEntity
  8
Layer_1
 62
7
100
AcDbSpline
 70
8
 71
3
 72
8
 73
4
 74
0
 40
0
 40
0
 40
0
 40
0
 40
1
 40
1
 40
1
 40
1
 10
1133.501079
 20
1399.668156
 30
0.0
 10
1144.881526
 20
1414.193945
 30
0.0
 10
1155.303299
 20
1426.206942
 30
0.0
 10
1156.660297
 20
1426.363131
 30
0.0
  0
SPLINE
  5
2ee
100
AcDbEntity
  8
Layer_1
 62
7
100
AcDbSpline
 70
8
 71
3
 72
8
 73
4
 74
0
 40
0
 40
0
 40
0
 40
0
 40
1
 40
1
 40
1
 40
1
 10
1156.660297
 20
1426.363131
 30
0.0
 10
1158.016785
 20
1426.637240
 30
0.0
 10
1167.328513
 20
1413.870570
 30
0.0
 10
1177.352189
 20
1398.254210
 30
0.0
  0
SPLINE
  5
2ef
100
AcDbEntity
  8
Layer_1
 62
7
100
AcDbSpline
 70
8
 71
3
 72
8
 73
4
 74
0
 40
0
 40
0
 40
0
 40
0
 40
1
 40
1
 40
1
 40
1
 10
1177.352189
 20
1398.254210
 30
0.0
 10
1197.005385
 20
1367.638052
 30
0.0
 10
1199.678335
 20
1352.457376
 30
0.0
 10
1188.374367
 20
1335.668214
 30
0.0
  0
SPLINE
  5
2f0
100
AcDbEntity
  8
Layer_1
 62
7
100
AcDbSpline
 70
8
 71
3
 72
8
 73
4
 74
0
 40
0
 40
0
 40
0
 40
0
 40
1
 40
1
 40
1
 40
1
 10
1188.374367
 20
1335.668214
 30
0.0
 10
1178.843322
 20
1321.512401
 30
0.0
 10
1159.729699
 20
1301.043169
 30
0.0
 10
1156.645217
 20
1301.687142
 30
0.0
  0
SPLINE
  5
2f1
100
AcDbEntity
  8
Layer_1
 62
7
100
AcDbSpline
 70
8
 71
3
 72
8
 73
4
 74
0
 40
0
 40
0
 40
0
 40
0
 40
1
 40
1
 40
1
 40
1
 10
1156.645217
 20
1301.687142
 30
0.0
 10
1155.296694
 20
1301.961252
 30
0.0
 10
1148.312204
 20
1308.266308
 30
0.0
 10
1141.124327
 20
1315.681267
 30
0.0
  0
LWPOLYLINE
  5
2f2
100
AcDbEntity
  8
Layer_1
 62
7
100
AcDbPolyline
 90
1
 70
1
 10
1173.768555
 20
1332.111480
 30
0.0
  0
SPLINE
  5
2f3
100
AcDbEntity
  8
Layer_1
 62
7
100
AcDbSpline
 70
8
 71
3
 72
8
 73
4
 74
0
 40
0
 40
0
 40
0
 40
0
 40
1
 40
1
 40
1
 40
1
 10
1311.578356
 20
1292.290998
 30
0.0
 10
1419.276820
 20
1311.442237
 30
0.0
 10
1459.208759
 20
1323.718231
 30
0.0
 10
1560.567782
 20
1368.832796
 30
0.0
  0
SPLINE
  5
2f4
100
AcDbEntity
  8
Layer_1
 62
7
100
AcDbSpline
 70
8
 71
3
 72
8
 73
4
 74
0
 40
0
 40
0
 40
0
 40
0
 40
1
 40
1
 40
1
 40
1
 10
1560.567782
 20
1368.832796
 30
0.0
 10
1661.862119
 20
1413.917171
 30
0.0
 10
1699.117282
 20
1435.331783
 30
0.0
 10
1777.128697
 20
1493.311493
 30
0.0
  0
SPLINE
  5
2f5
100
AcDbEntity
  8
Layer_1
 62
7
100
AcDbSpline
 70
8
 71
3
 72
8
 73
4
 74
0
 40
0
 40
0
 40
0
 40
0
 40
1
 40
1
 40
1
 40
1
 10
1777.128697
 20
1493.311493
 30
0.0
 10
1837.866340
 20
1538.453441
 30
0.0
 10
1913.424688
 20
1612.068729
 30
0.0
 10
1952.951416
 20
1664.609138
 30
0.0
  0
SPLINE
  5
2f6
100
AcDbEntity
  8
Layer_1
 62
7
100
AcDbSpline
 70
8
 71
3
 72
8
 73
4
 74
0
 40
0
 40
0
 40
0
 40
0
 40
1
 40
1
 40
1
 40
1
 10
1952.951416
 20
1664.609138
 30
0.0
 10
1995.962595
 20
1721.785994
 30
0.0
 10
2075.696506
 20
1888.997990
 30
0.0
 10
2104.589572
 20
1982.616666
 30
0.0
  0
SPLINE
  5
2f7
100
AcDbEntity
  8
Layer_1
 62
7
100
AcDbSpline
 70
8
 71
3
 72
8
 73
4
 74
0
 40
0
 40
0
 40
0
 40
0
 40
1
 40
1
 40
1
 40
1
 10
2104.589572
 20
1982.616666
 30
0.0
 10
2144.711178
 20
2112.616870
 30
0.0
 10
2150.587297
 20
2308.356973
 30
0.0
 10
2118.779769
 20
2455.299495
 30
0.0
  0
SPLINE
  5
2f8
100
AcDbEntity
  8
Layer_1
 62
7
100
AcDbSpline
 70
8
 71
3
 72
8
 73
4
 74
0
 40
0
 40
0
 40
0
 40
0
 40
1
 40
1
 40
1
 40
1
 10
2118.779769
 20
2455.299495
 30
0.0
 10
2113.499945
 20
2479.690420
 30
0.0
 10
2107.738968
 20
2499.646837
 30
0.0
 10
2105.977609
 20
2499.646837
 30
0.0
  0
SPLINE
  5
2f9
100
AcDbEntity
  8
Layer_1
 62
7
100
AcDbSpline
 70
8
 71
3
 72
8
 73
4
 74
0
 40
0
 40
0
 40
0
 40
0
 40
1
 40
1
 40
1
 40
1
 10
2105.977609
 20
2499.646837
 30
0.0
 10
2100.046668
 20
2499.646837
 30
0.0
 10
2067.512056
 20
2461.717398
 30
0.0
 10
2058.659256
 20
2444.484218
 30
0.0
  0
SPLINE
  5
2fa
100
AcDbEntity
  8
Layer_1
 62
7
100
AcDbSpline
 70
8
 71
3
 72
8
 73
4
 74
0
 40
0
 40
0
 40
0
 40
0
 40
1
 40
1
 40
1
 40
1
 10
2058.659256
 20
2444.484218
 30
0.0
 10
2051.336196
 20
2430.227124
 30
0.0
 10
2029.424020
 20
2339.079912
 30
0.0
 10
2033.012672
 20
2337.802907
 30
0.0
  0
SPLINE
  5
2fb
100
AcDbEntity
  8
Layer_1
 62
7
100
AcDbSpline
 70
8
 71
3
 72
8
 73
4
 74
0
 40
0
 40
0
 40
0
 40
0
 40
1
 40
1
 40
1
 40
1
 10
2033.012672
 20
2337.802907
 30
0.0
 10
2052.989583
 20
2330.689384
 30
0.0
 10
2086.645748
 20
2309.124310
 30
0.0
 10
2095.246323
 20
2297.925222
 30
0.0
  0
SPLINE
  5
2fc
100
AcDbEntity
  8
Layer_1
 62
7
100
AcDbSpline
 70
8
 71
3
 72
8
 73
4
 74
0
 40
0
 40
0
 40
0
 40
0
 40
1
 40
1
 40
1
 40
1
 10
2095.246323
 20
2297.925222
 30
0.0
 10
2101.500441
 20
2289.781025
 30
0.0
 10
2111.611877
 20
2278.518725
 30
0.0
 10
2117.716327
 20
2272.896221
 30
0.0
  0
SPLINE
  5
2fd
100
AcDbEntity
  8
Layer_1
 62
7
100
AcDbSpline
 70
8
 71
3
 72
8
 73
4
 74
0
 40
0
 40
0
 40
0
 40
0
 40
1
 40
1
 40
1
 40
1
 10
2117.716327
 20
2272.896221
 30
0.0
 10
2128.814982
 20
2262.675367
 30
0.0
 10
2128.814982
 20
2262.675367
 30
0.0
 10
2111.276625
 20
2239.095716
 30
0.0
  0
SPLINE
  5
2fe
100
AcDbEntity
  8
Layer_1
 62
7
100
AcDbSpline
 70
8
 71
3
 72
8
 73
4
 74
0
 40
0
 40
0
 40
0
 40
0
 40
1
 40
1
 40
1
 40
1
 10
2111.276625
 20
2239.095716
 30
0.0
 10
2090.057802
 20
2210.567723
 30
0.0
 10
2070.141154
 20
2193.320936
 30
0.0
 10
2054.500417
 20
2189.931560
 30
0.0
  0
SPLINE
  5
2ff
100
AcDbEntity
  8
Layer_1
 62
7
100
AcDbSpline
 70
8
 71
3
 72
8
 73
4
 74
0
 40
0
 40
0
 40
0
 40
0
 40
1
 40
1
 40
1
 40
1
 10
2054.500417
 20
2189.931560
 30
0.0
 10
2048.096318
 20
2188.534083
 30
0.0
 10
2040.699501
 20
2186.769238
 30
0.0
 10
2038.062749
 20
2185.991129
 30
0.0
  0
SPLINE
  5
300
100
AcDbEntity
  8
Layer_1
 62
7
100
AcDbSpline
 70
8
 71
3
 72
8
 73
4
 74
0
 40
0
 40
0
 40
0
 40
0
 40
1
 40
1
 40
1
 40
1
 10
2038.062749
 20
2185.991129
 30
0.0
 10
2034.607410
 20
2184.977180
 30
0.0
 10
2034.775136
 20
2174.498657
 30
0.0
 10
2038.665365
 20
2148.494087
 30
0.0
  0
SPLINE
  5
301
100
AcDbEntity
  8
Layer_1
 62
7
100
AcDbSpline
 70
8
 71
3
 72
8
 73
4
 74
0
 40
0
 40
0
 40
0
 40
0
 40
1
 40
1
 40
1
 40
1
 10
2038.665365
 20
2148.494087
 30
0.0
 10
2048.868303
 20
2080.271668
 30
0.0
 10
2057.968114
 20
2058.341890
 30
0.0
 10
2089.857931
 20
2025.122542
 30
0.0
  0
SPLINE
  5
302
100
AcDbEntity
  8
Layer_1
 62
7
100
AcDbSpline
 70
8
 71
3
 72
8
 73
4
 74
0
 40
0
 40
0
 40
0
 40
0
 40
1
 40
1
 40
1
 40
1
 10
2089.857931
 20
2025.122542
 30
0.0
 10
2100.025267
 20
2014.531683
 30
0.0
 10
2106.202084
 20
2004.466962
 30
0.0
 10
2104.785276
 20
2000.797863
 30
0.0
  0
SPLINE
  5
303
100
AcDbEntity
  8
Layer_1
 62
7
100
AcDbSpline
 70
8
 71
3
 72
8
 73
4
 74
0
 40
0
 40
0
 40
0
 40
0
 40
1
 40
1
 40
1
 40
1
 10
2104.785276
 20
2000.797863
 30
0.0
 10
2100.495703
 20
1989.697336
 30
0.0
 10
2065.602899
 20
1976.127925
 30
0.0
 10
2041.342113
 20
1976.127925
 30
0.0
  0
SPLINE
  5
304
100
AcDbEntity
  8
Layer_1
 62
7
100
AcDbSpline
 70
8
 71
3
 72
8
 73
4
 74
0
 40
0
 40
0
 40
0
 40
0
 40
1
 40
1
 40
1
 40
1
 10
2041.342113
 20
1976.127925
 30
0.0
 10
2014.605497
 20
1976.127925
 30
0.0
 10
1994.995104
 20
1983.468900
 30
0.0
 10
1979.071470
 20
1999.444182
 30
0.0
  0
SPLINE
  5
305
100
AcDbEntity
  8
Layer_1
 62
7
100
AcDbSpline
 70
8
 71
3
 72
8
 73
4
 74
0
 40
0
 40
0
 40
0
 40
0
 40
1
 40
1
 40
1
 40
1
 10
1979.071470
 20
1999.444182
 30
0.0
 10
1969.189242
 20
2009.355465
 30
0.0
 10
1965.155156
 20
2010.607751
 30
0.0
 10
1950.573183
 20
2008.292277
 30
0.0
  0
SPLINE
  5
306
100
AcDbEntity
  8
Layer_1
 62
7
100
AcDbSpline
 70
8
 71
3
 72
8
 73
4
 74
0
 40
0
 40
0
 40
0
 40
0
 40
1
 40
1
 40
1
 40
1
 10
1950.573183
 20
2008.292277
 30
0.0
 10
1912.292165
 20
2002.211809
 30
0.0
 10
1873.721362
 20
2024.379952
 30
0.0
 10
1857.236015
 20
2061.937032
 30
0.0
  0
SPLINE
  5
307
100
AcDbEntity
  8
Layer_1
 62
7
100
AcDbSpline
 70
8
 71
3
 72
8
 73
4
 74
0
 40
0
 40
0
 40
0
 40
0
 40
1
 40
1
 40
1
 40
1
 10
1857.236015
 20
2061.937032
 30
0.0
 10
1844.741442
 20
2090.399404
 30
0.0
 10
1845.700372
 20
2092.328517
 30
0.0
 10
1872.361359
 20
2092.328517
 30
0.0
  0
SPLINE
  5
308
100
AcDbEntity
  8
Layer_1
 62
7
100
AcDbSpline
 70
8
 71
3
 72
8
 73
4
 74
0
 40
0
 40
0
 40
0
 40
0
 40
1
 40
1
 40
1
 40
1
 10
1872.361359
 20
2092.328517
 30
0.0
 10
1897.837695
 20
2092.328517
 30
0.0
 10
1921.660927
 20
2100.296995
 30
0.0
 10
1931.537939
 20
2112.126364
 30
0.0
  0
SPLINE
  5
309
100
AcDbEntity
  8
Layer_1
 62
7
100
AcDbSpline
 70
8
 71
3
 72
8
 73
4
 74
0
 40
0
 40
0
 40
0
 40
0
 40
1
 40
1
 40
1
 40
1
 10
1931.537939
 20
2112.126364
 30
0.0
 10
1935.001781
 20
2116.275027
 30
0.0
 10
1937.633941
 20
2126.742550
 30
0.0
 10
1937.387157
 20
2135.385134
 30
0.0
  0
SPLINE
  5
30a
100
AcDbEntity
  8
Layer_1
 62
7
100
AcDbSpline
 70
8
 71
3
 72
8
 73
4
 74
0
 40
0
 40
0
 40
0
 40
0
 40
1
 40
1
 40
1
 40
1
 10
1937.387157
 20
2135.385134
 30
0.0
 10
1936.773061
 20
2156.884955
 30
0.0
 10
1912.652164
 20
2179.477982
 30
0.0
 10
1890.314793
 20
2179.477982
 30
0.0
  0
SPLINE
  5
30b
100
AcDbEntity
  8
Layer_1
 62
7
100
AcDbSpline
 70
8
 71
3
 72
8
 73
4
 74
0
 40
0
 40
0
 40
0
 40
0
 40
1
 40
1
 40
1
 40
1
 10
1890.314793
 20
2179.477982
 30
0.0
 10
1856.046516
 20
2179.477982
 30
0.0
 10
1834.966647
 20
2160.951073
 30
0.0
 10
1810.036688
 20
2108.923110
 30
0.0
  0
SPLINE
  5
30c
100
AcDbEntity
  8
Layer_1
 62
7
100
AcDbSpline
 70
8
 71
3
 72
8
 73
4
 74
0
 40
0
 40
0
 40
0
 40
0
 40
1
 40
1
 40
1
 40
1
 10
1810.036688
 20
2108.923110
 30
0.0
 10
1804.315198
 20
2096.981376
 30
0.0
 10
1786.377355
 20
2074.873469
 30
0.0
 10
1767.914877
 20
2057.004649
 30
0.0
  0
SPLINE
  5
30d
100
AcDbEntity
  8
Layer_1
 62
7
100
AcDbSpline
 70
8
 71
3
 72
8
 73
4
 74
0
 40
0
 40
0
 40
0
 40
0
 40
1
 40
1
 40
1
 40
1
 10
1767.914877
 20
2057.004649
 30
0.0
 10
1750.228693
 20
2039.886725
 30
0.0
 10
1735.755599
 20
2024.711491
 30
0.0
 10
1735.752283
 20
2023.278384
 30
0.0
  0
SPLINE
  5
30e
100
AcDbEntity
  8
Layer_1
 62
7
100
AcDbSpline
 70
8
 71
3
 72
8
 73
4
 74
0
 40
0
 40
0
 40
0
 40
0
 40
1
 40
1
 40
1
 40
1
 10
1735.752283
 20
2023.278384
 30
0.0
 10
1735.749533
 20
2021.853525
 30
0.0
 10
1751.308293
 20
2019.483229
 30
0.0
 10
1770.329251
 20
2018.028181
 30
0.0
  0
SPLINE
  5
30f
100
AcDbEntity
  8
Layer_1
 62
7
100
AcDbSpline
 70
8
 71
3
 72
8
 73
4
 74
0
 40
0
 40
0
 40
0
 40
0
 40
1
 40
1
 40
1
 40
1
 10
1770.329251
 20
2018.028181
 30
0.0
 10
1822.832555
 20
2014.005603
 30
0.0
 10
1869.251648
 20
1994.689956
 30
0.0
 10
1900.699545
 20
1963.780611
 30
0.0
  0
SPLINE
  5
310
100
AcDbEntity
  8
Layer_1
 62
7
100
AcDbSpline
 70
8
 71
3
 72
8
 73
4
 74
0
 40
0
 40
0
 40
0
 40
0
 40
1
 40
1
 40
1
 40
1
 10
1900.699545
 20
1963.780611
 30
0.0
 10
1946.767455
 20
1918.498916
 30
0.0
 10
1969.908021
 20
1872.334884
 30
0.0
 10
1974.163918
 20
1817.224139
 30
0.0
  0
SPLINE
  5
311
100
AcDbEntity
  8
Layer_1
 62
7
100
AcDbSpline
 70
8
 71
3
 72
8
 73
4
 74
0
 40
0
 40
0
 40
0
 40
0
 40
1
 40
1
 40
1
 40
1
 10
1974.163918
 20
1817.224139
 30
0.0
 10
1978.193356
 20
1765.048179
 30
0.0
 10
1956.521076
 20
1718.681357
 30
0.0
 10
1910.148073
 20
1680.269350
 30
0.0
  0
SPLINE
  5
312
100
AcDbEntity
  8
Layer_1
 62
7
100
AcDbSpline
 70
8
 71
3
 72
8
 73
4
 74
0
 40
0
 40
0
 40
0
 40
0
 40
1
 40
1
 40
1
 40
1
 10
1910.148073
 20
1680.269350
 30
0.0
 10
1869.636309
 20
1646.712936
 30
0.0
 10
1814.446336
 20
1625.199707
 30
0.0
 10
1766.034180
 20
1624.098139
 30
0.0
  0
SPLINE
  5
313
100
AcDbEntity
  8
Layer_1
 62
7
100
AcDbSpline
 70
8
 71
3
 72
8
 73
4
 74
0
 40
0
 40
0
 40
0
 40
0
 40
1
 40
1
 40
1
 40
1
 10
1766.034180
 20
1624.098139
 30
0.0
 10
1740.161420
 20
1623.522707
 30
0.0
 10
1740.161420
 20
1623.522707
 30
0.0
 10
1737.941615
 20
1608.363971
 30
0.0
  0
SPLINE
  5
314
100
AcDbEntity
  8
Layer_1
 62
7
100
AcDbSpline
 70
8
 71
3
 72
8
 73
4
 74
0
 40
0
 40
0
 40
0
 40
0
 40
1
 40
1
 40
1
 40
1
 10
1737.941615
 20
1608.363971
 30
0.0
 10
1728.791404
 20
1545.942384
 30
0.0
 10
1721.410489
 20
1526.319858
 30
0.0
 10
1693.182486
 20
1489.382062
 30
0.0
  0
SPLINE
  5
315
100
AcDbEntity
  8
Layer_1
 62
7
100
AcDbSpline
 70
8
 71
3
 72
8
 73
4
 74
0
 40
0
 40
0
 40
0
 40
0
 40
1
 40
1
 40
1
 40
1
 10
1693.182486
 20
1489.382062
 30
0.0
 10
1673.496436
 20
1463.621497
 30
0.0
 10
1643.954748
 20
1446.503516
 30
0.0
 10
1607.393448
 20
1439.666738
 30
0.0
  0
SPLINE
  5
316
100
AcDbEntity
  8
Layer_1
 62
7
100
AcDbSpline
 70
8
 71
3
 72
8
 73
4
 74
0
 40
0
 40
0
 40
0
 40
0
 40
1
 40
1
 40
1
 40
1
 10
1607.393448
 20
1439.666738
 30
0.0
 10
1574.901922
 20
1433.594490
 30
0.0
 10
1522.923906
 20
1442.801536
 30
0.0
 10
1490.188091
 20
1460.429184
 30
0.0
  0
SPLINE
  5
317
100
AcDbEntity
  8
Layer_1
 62
7
100
AcDbSpline
 70
8
 71
3
 72
8
 73
4
 74
0
 40
0
 40
0
 40
0
 40
0
 40
1
 40
1
 40
1
 40
1
 10
1490.188091
 20
1460.429184
 30
0.0
 10
1464.611891
 20
1474.201414
 30
0.0
 10
1431.892318
 20
1509.596459
 30
0.0
 10
1416.275959
 20
1540.382525
 30
0.0
  0
SPLINE
  5
318
100
AcDbEntity
  8
Layer_1
 62
7
100
AcDbSpline
 70
8
 71
3
 72
8
 73
4
 74
0
 40
0
 40
0
 40
0
 40
0
 40
1
 40
1
 40
1
 40
1
 10
1416.275959
 20
1540.382525
 30
0.0
 10
1403.250656
 20
1566.060857
 30
0.0
 10
1388.284335
 20
1622.267671
 30
0.0
 10
1386.366646
 20
1652.708478
 30
0.0
  0
SPLINE
  5
319
100
AcDbEntity
  8
Layer_1
 62
7
100
AcDbSpline
 70
8
 71
3
 72
8
 73
4
 74
0
 40
0
 40
0
 40
0
 40
0
 40
1
 40
1
 40
1
 40
1
 10
1386.366646
 20
1652.708478
 30
0.0
 10
1384.932603
 20
1675.476743
 30
0.0
 10
1383.244094
 20
1676.315257
 30
0.0
 10
1354.662725
 20
1668.434482
 30
0.0
  0
SPLINE
  5
31a
100
AcDbEntity
  8
Layer_1
 62
7
100
AcDbSpline
 70
8
 71
3
 72
8
 73
4
 74
0
 40
0
 40
0
 40
0
 40
0
 40
1
 40
1
 40
1
 40
1
 10
1354.662725
 20
1668.434482
 30
0.0
 10
1336.414574
 20
1663.403453
 30
0.0
 10
1306.288128
 20
1644.641382
 30
0.0
 10
1290.796577
 20
1628.660517
 30
0.0
  0
SPLINE
  5
31b
100
AcDbEntity
  8
Layer_1
 62
7
100
AcDbSpline
 70
8
 71
3
 72
8
 73
4
 74
0
 40
0
 40
0
 40
0
 40
0
 40
1
 40
1
 40
1
 40
1
 10
1290.796577
 20
1628.660517
 30
0.0
 10
1279.296848
 20
1616.798266
 30
0.0
 10
1259.008212
 20
1574.210214
 30
0.0
 10
1262.978434
 20
1570.267063
 30
0.0
  0
SPLINE
  5
31c
100
AcDbEntity
  8
Layer_1
 62
7
100
AcDbSpline
 70
8
 71
3
 72
8
 73
4
 74
0
 40
0
 40
0
 40
0
 40
0
 40
1
 40
1
 40
1
 40
1
 10
1262.978434
 20
1570.267063
 30
0.0
 10
1264.601661
 20
1568.650355
 30
0.0
 10
1267.609325
 20
1570.267063
 30
0.0
 10
1269.661631
 20
1573.788221
 30
0.0
  0
SPLINE
  5
31d
100
AcDbEntity
  8
Layer_1
 62
7
100
AcDbSpline
 70
8
 71
3
 72
8
 73
4
 74
0
 40
0
 40
0
 40
0
 40
0
 40
1
 40
1
 40
1
 40
1
 10
1269.661631
 20
1573.788221
 30
0.0
 10
1279.016645
 20
1589.969071
 30
0.0
 10
1286.187003
 20
1596.107082
 30
0.0
 10
1302.072001
 20
1601.529915
 30
0.0
  0
SPLINE
  5
31e
100
AcDbEntity
  8
Layer_1
 62
7
100
AcDbSpline
 70
8
 71
3
 72
8
 73
4
 74
0
 40
0
 40
0
 40
0
 40
0
 40
1
 40
1
 40
1
 40
1
 10
1302.072001
 20
1601.529915
 30
0.0
 10
1336.414319
 20
1613.257917
 30
0.0
 10
1374.125660
 20
1587.864579
 30
0.0
 10
1374.165401
 20
1552.984673
 30
0.0
  0
SPLINE
  5
31f
100
AcDbEntity
  8
Layer_1
 62
7
100
AcDbSpline
 70
8
 71
3
 72
8
 73
4
 74
0
 40
0
 40
0
 40
0
 40
0
 40
1
 40
1
 40
1
 40
1
 10
1374.165401
 20
1552.984673
 30
0.0
 10
1374.190913
 20
1533.499146
 30
0.0
 10
1364.750294
 20
1516.945683
 30
0.0
 10
1343.150694
 20
1498.583608
 30
0.0
  0
SPLINE
  5
320
100
AcDbEntity
  8
Layer_1
 62
7
100
AcDbSpline
 70
8
 71
3
 72
8
 73
4
 74
0
 40
0
 40
0
 40
0
 40
0
 40
1
 40
1
 40
1
 40
1
 10
1343.150694
 20
1498.583608
 30
0.0
 10
1327.285736
 20
1485.096429
 30
0.0
 10
1326.018029
 20
1482.780927
 30
0.0
 10
1333.235301
 20
1480.476423
 30
0.0
  0
SPLINE
  5
321
100
AcDbEntity
  8
Layer_1
 62
7
100
AcDbSpline
 70
8
 71
3
 72
8
 73
4
 74
0
 40
0
 40
0
 40
0
 40
0
 40
1
 40
1
 40
1
 40
1
 10
1333.235301
 20
1480.476423
 30
0.0
 10
1393.518693
 20
1461.223847
 30
0.0
 10
1409.633353
 20
1436.732009
 30
0.0
 10
1392.297587
 20
1390.713223
 30
0.0
  0
SPLINE
  5
322
100
AcDbEntity
  8
Layer_1
 62
7
100
AcDbSpline
 70
8
 71
3
 72
8
 73
4
 74
0
 40
0
 40
0
 40
0
 40
0
 40
1
 40
1
 40
1
 40
1
 10
1392.297587
 20
1390.713223
 30
0.0
 10
1387.344228
 20
1377.563027
 30
0.0
 10
1381.969556
 20
1356.904725
 30
0.0
 10
1380.353501
 20
1344.806774
 30
0.0
  0
SPLINE
  5
323
100
AcDbEntity
  8
Layer_1
 62
7
100
AcDbSpline
 70
8
 71
3
 72
8
 73
4
 74
0
 40
0
 40
0
 40
0
 40
0
 40
1
 40
1
 40
1
 40
1
 10
1380.353501
 20
1344.806774
 30
0.0
 10
1378.736822
 20
1332.708823
 30
0.0
 10
1375.665520
 20
1322.808482
 30
0.0
 10
1373.527211
 20
1322.808482
 30
0.0
  0
SPLINE
  5
324
100
AcDbEntity
  8
Layer_1
 62
7
100
AcDbSpline
 70
8
 71
3
 72
8
 73
4
 74
0
 40
0
 40
0
 40
0
 40
0
 40
1
 40
1
 40
1
 40
1
 10
1373.527211
 20
1322.808482
 30
0.0
 10
1371.388278
 20
1322.808482
 30
0.0
 10
1362.329570
 20
1327.477783
 30
0.0
 10
1353.396180
 20
1333.188359
 30
0.0
  0
SPLINE
  5
325
100
AcDbEntity
  8
Layer_1
 62
7
100
AcDbSpline
 70
8
 71
3
 72
8
 73
4
 74
0
 40
0
 40
0
 40
0
 40
0
 40
1
 40
1
 40
1
 40
1
 10
1353.396180
 20
1333.188359
 30
0.0
 10
1334.859888
 20
1345.031476
 30
0.0
 10
1318.546179
 20
1350.306340
 30
0.0
 10
1278.345289
 20
1357.455523
 30
0.0
  0
SPLINE
  5
326
100
AcDbEntity
  8
Layer_1
 62
7
100
AcDbSpline
 70
8
 71
3
 72
8
 73
4
 74
0
 40
0
 40
0
 40
0
 40
0
 40
1
 40
1
 40
1
 40
1
 10
1278.345289
 20
1357.455523
 30
0.0
 10
1221.749506
 20
1367.517467
 30
0.0
 10
1193.588654
 20
1387.033126
 30
0.0
 10
1168.856921
 20
1433.336907
 30
0.0
  0
SPLINE
  5
327
100
AcDbEntity
  8
Layer_1
 62
7
100
AcDbSpline
 70
8
 71
3
 72
8
 73
4
 74
0
 40
0
 40
0
 40
0
 40
0
 40
1
 40
1
 40
1
 40
1
 10
1168.856921
 20
1433.336907
 30
0.0
 10
1163.196263
 20
1443.935986
 30
0.0
 10
1157.499775
 20
1452.605924
 30
0.0
 10
1156.197826
 20
1452.605924
 30
0.0
  0
SPLINE
  5
328
100
AcDbEntity
  8
Layer_1
 62
7
100
AcDbSpline
 70
8
 71
3
 72
8
 73
4
 74
0
 40
0
 40
0
 40
0
 40
0
 40
1
 40
1
 40
1
 40
1
 10
1156.197826
 20
1452.605924
 30
0.0
 10
1154.895593
 20
1452.605924
 30
0.0
 10
1148.664776
 20
1442.146621
 30
0.0
 10
1142.351159
 20
1429.358152
 30
0.0
  0
SPLINE
  5
329
100
AcDbEntity
  8
Layer_1
 62
7
100
AcDbSpline
 70
8
 71
3
 72
8
 73
4
 74
0
 40
0
 40
0
 40
0
 40
0
 40
1
 40
1
 40
1
 40
1
 10
1142.351159
 20
1429.358152
 30
0.0
 10
1120.514668
 20
1385.136924
 30
0.0
 10
1077.997539
 20
1361.672699
 30
0.0
 10
996.114802
 20
1348.651280
 30
0.0
  0
SPLINE
  5
32a
100
AcDbEntity
  8
Layer_1
 62
7
100
AcDbSpline
 70
8
 71
3
 72
8
 73
4
 74
0
 40
0
 40
0
 40
0
 40
0
 40
1
 40
1
 40
1
 40
1
 10
996.114802
 20
1348.651280
 30
0.0
 10
974.249795
 20
1345.173945
 30
0.0
 10
960.491937
 20
1340.364897
 30
0.0
 10
951.924017
 20
1333.204800
 30
0.0
  0
SPLINE
  5
32b
100
AcDbEntity
  8
Layer_1
 62
7
100
AcDbSpline
 70
8
 71
3
 72
8
 73
4
 74
0
 40
0
 40
0
 40
0
 40
0
 40
1
 40
1
 40
1
 40
1
 10
951.924017
 20
1333.204800
 30
0.0
 10
934.103500
 20
1318.311868
 30
0.0
 10
930.868526
 20
1320.054632
 30
0.0
 10
933.071606
 20
1343.359947
 30
0.0
  0
SPLINE
  5
32c
100
AcDbEntity
  8
Layer_1
 62
7
100
AcDbSpline
 70
8
 71
3
 72
8
 73
4
 74
0
 40
0
 40
0
 40
0
 40
0
 40
1
 40
1
 40
1
 40
1
 10
933.071606
 20
1343.359947
 30
0.0
 10
934.321200
 20
1356.573129
 30
0.0
 10
932.345372
 20
1370.860525
 30
0.0
 10
927.537089
 20
1383.380469
 30
0.0
  0
SPLINE
  5
32d
100
AcDbEntity
  8
Layer_1
 62
7
100
AcDbSpline
 70
8
 71
3
 72
8
 73
4
 74
0
 40
0
 40
0
 40
0
 40
0
 40
1
 40
1
 40
1
 40
1
 10
927.537089
 20
1383.380469
 30
0.0
 10
905.308540
 20
1441.261533
 30
0.0
 10
916.786102
 20
1461.928084
 30
0.0
 10
981.991219
 20
1481.435495
 30
0.0
  0
SPLINE
  5
32e
100
AcDbEntity
  8
Layer_1
 62
7
100
AcDbSpline
 70
8
 71
3
 72
8
 73
4
 74
0
 40
0
 40
0
 40
0
 40
0
 40
1
 40
1
 40
1
 40
1
 10
981.991219
 20
1481.435495
 30
0.0
 10
986.623782
 20
1482.832999
 30
0.0
 10
984.603309
 20
1486.296643
 30
0.0
 10
974.678052
 20
1494.010288
 30
0.0
  0
SPLINE
  5
32f
100
AcDbEntity
  8
Layer_1
 62
7
100
AcDbSpline
 70
8
 71
3
 72
8
 73
4
 74
0
 40
0
 40
0
 40
0
 40
0
 40
1
 40
1
 40
1
 40
1
 10
974.678052
 20
1494.010288
 30
0.0
 10
956.322695
 20
1508.278438
 30
0.0
 10
942.918458
 20
1530.674004
 30
0.0
 10
942.918458
 20
1547.074084
 30
0.0
  0
SPLINE
  5
330
100
AcDbEntity
  8
Layer_1
 62
7
100
AcDbSpline
 70
8
 71
3
 72
8
 73
4
 74
0
 40
0
 40
0
 40
0
 40
0
 40
1
 40
1
 40
1
 40
1
 10
942.918458
 20
1547.074084
 30
0.0
 10
942.918458
 20
1578.424583
 30
0.0
 10
970.800494
 20
1608.426957
 30
0.0
 10
999.818313
 20
1608.298179
 30
0.0
  0
SPLINE
  5
331
100
AcDbEntity
  8
Layer_1
 62
7
100
AcDbSpline
 70
8
 71
3
 72
8
 73
4
 74
0
 40
0
 40
0
 40
0
 40
0
 40
1
 40
1
 40
1
 40
1
 10
999.818313
 20
1608.298179
 30
0.0
 10
1017.309502
 20
1608.298179
 30
0.0
 10
1018.842531
 20
1607.284314
 30
0.0
 10
1038.208124
 20
1584.894191
 30
0.0
  0
SPLINE
  5
332
100
AcDbEntity
  8
Layer_1
 62
7
100
AcDbSpline
 70
8
 71
3
 72
8
 73
4
 74
0
 40
0
 40
0
 40
0
 40
0
 40
1
 40
1
 40
1
 40
1
 10
1038.208124
 20
1584.894191
 30
0.0
 10
1050.065585
 20
1571.182282
 30
0.0
 10
1052.262344
 20
1569.932774
 30
0.0
 10
1049.616011
 20
1578.405421
 30
0.0
  0
SPLINE
  5
333
100
AcDbEntity
  8
Layer_1
 62
7
100
AcDbSpline
 70
8
 71
3
 72
8
 73
4
 74
0
 40
0
 40
0
 40
0
 40
0
 40
1
 40
1
 40
1
 40
1
 10
1049.616011
 20
1578.405421
 30
0.0
 10
1043.080300
 20
1599.326806
 30
0.0
 10
1026.157087
 20
1628.148156
 30
0.0
 10
1012.109444
 20
1642.284806
 30
0.0
  0
SPLINE
  5
334
100
AcDbEntity
  8
Layer_1
 62
7
100
AcDbSpline
 70
8
 71
3
 72
8
 73
4
 74
0
 40
0
 40
0
 40
0
 40
0
 40
1
 40
1
 40
1
 40
1
 10
1012.109444
 20
1642.284806
 30
0.0
 10
993.241471
 20
1661.271607
 30
0.0
 10
949.198116
 20
1683.335606
 30
0.0
 10
936.488054
 20
1680.165205
 30
0.0
  0
SPLINE
  5
335
100
AcDbEntity
  8
Layer_1
 62
7
100
AcDbSpline
 70
8
 71
3
 72
8
 73
4
 74
0
 40
0
 40
0
 40
0
 40
0
 40
1
 40
1
 40
1
 40
1
 10
936.488054
 20
1680.165205
 30
0.0
 10
927.857857
 20
1678.027860
 30
0.0
 10
926.476170
 20
1674.117619
 30
0.0
 10
923.989909
 20
1644.901659
 30
0.0
  0
SPLINE
  5
336
100
AcDbEntity
  8
Layer_1
 62
7
100
AcDbSpline
 70
8
 71
3
 72
8
 73
4
 74
0
 40
0
 40
0
 40
0
 40
0
 40
1
 40
1
 40
1
 40
1
 10
923.989909
 20
1644.901659
 30
0.0
 10
915.357756
 20
1543.476192
 30
0.0
 10
864.981055
 20
1473.319048
 30
0.0
 10
784.231691
 20
1450.265846
 30
0.0
  0
SPLINE
  5
337
100
AcDbEntity
  8
Layer_1
 62
7
100
AcDbSpline
 70
8
 71
3
 72
8
 73
4
 74
0
 40
0
 40
0
 40
0
 40
0
 40
1
 40
1
 40
1
 40
1
 10
784.231691
 20
1450.265846
 30
0.0
 10
732.361674
 20
1435.455090
 30
0.0
 10
675.184167
 20
1451.279682
 30
0.0
 10
634.452009
 20
1491.746858
 30
0.0
  0
SPLINE
  5
338
100
AcDbEntity
  8
Layer_1
 62
7
100
AcDbSpline
 70
8
 71
3
 72
8
 73
4
 74
0
 40
0
 40
0
 40
0
 40
0
 40
1
 40
1
 40
1
 40
1
 10
634.452009
 20
1491.746858
 30
0.0
 10
608.356078
 20
1517.666333
 30
0.0
 10
580.216912
 20
1575.750216
 30
0.0
 10
577.821104
 20
1608.646216
 30
0.0
  0
SPLINE
  5
339
100
AcDbEntity
  8
Layer_1
 62
7
100
AcDbSpline
 70
8
 71
3
 72
8
 73
4
 74
0
 40
0
 40
0
 40
0
 40
0
 40
1
 40
1
 40
1
 40
1
 10
577.821104
 20
1608.646216
 30
0.0
 10
576.206126
 20
1630.819830
 30
0.0
 10
574.647841
 20
1634.645146
 30
0.0
 10
566.669611
 20
1636.023488
 30
0.0
  0
SPLINE
  5
33a
100
AcDbEntity
  8
Layer_1
 62
7
100
AcDbSpline
 70
8
 71
3
 72
8
 73
4
 74
0
 40
0
 40
0
 40
0
 40
0
 40
1
 40
1
 40
1
 40
1
 10
566.669611
 20
1636.023488
 30
0.0
 10
470.638913
 20
1652.604362
 30
0.0
 10
448.346272
 20
1661.789496
 30
0.0
 10
408.804747
 20
1701.061900
 30
0.0
  0
SPLINE
  5
33b
100
AcDbEntity
  8
Layer_1
 62
7
100
AcDbSpline
 70
8
 71
3
 72
8
 73
4
 74
0
 40
0
 40
0
 40
0
 40
0
 40
1
 40
1
 40
1
 40
1
 10
408.804747
 20
1701.061900
 30
0.0
 10
379.800053
 20
1729.869587
 30
0.0
 10
354.783325
 20
1774.277108
 30
0.0
 10
348.816129
 20
1807.548556
 30
0.0
  0
SPLINE
  5
33c
100
AcDbEntity
  8
Layer_1
 62
7
100
AcDbSpline
 70
8
 71
3
 72
8
 73
4
 74
0
 40
0
 40
0
 40
0
 40
0
 40
1
 40
1
 40
1
 40
1
 10
348.816129
 20
1807.548556
 30
0.0
 10
341.047238
 20
1850.870978
 30
0.0
 10
373.449132
 20
1929.492577
 30
0.0
 10
417.118542
 20
1973.286343
 30
0.0
  0
SPLINE
  5
33d
100
AcDbEntity
  8
Layer_1
 62
7
100
AcDbSpline
 70
8
 71
3
 72
8
 73
4
 74
0
 40
0
 40
0
 40
0
 40
0
 40
1
 40
1
 40
1
 40
1
 10
417.118542
 20
1973.286343
 30
0.0
 10
455.726621
 20
2012.002534
 30
0.0
 10
486.785435
 20
2024.938971
 30
0.0
 10
564.112087
 20
2034.510437
 30
0.0
  0
SPLINE
  5
33e
100
AcDbEntity
  8
Layer_1
 62
7
100
AcDbSpline
 70
8
 71
3
 72
8
 73
4
 74
0
 40
0
 40
0
 40
0
 40
0
 40
1
 40
1
 40
1
 40
1
 10
564.112087
 20
2034.510437
 30
0.0
 10
583.897661
 20
2036.949218
 30
0.0
 10
583.897661
 20
2036.949218
 30
0.0
 10
565.933229
 20
2056.119590
 30
0.0
  0
SPLINE
  5
33f
100
AcDbEntity
  8
Layer_1
 62
7
100
AcDbSpline
 70
8
 71
3
 72
8
 73
4
 74
0
 40
0
 40
0
 40
0
 40
0
 40
1
 40
1
 40
1
 40
1
 10
565.933229
 20
2056.119590
 30
0.0
 10
556.052928
 20
2066.658377
 30
0.0
 10
535.387880
 20
2096.014084
 30
0.0
 10
520.010565
 20
2121.358099
 30
0.0
  0
SPLINE
  5
340
100
AcDbEntity
  8
Layer_1
 62
7
100
AcDbSpline
 70
8
 71
3
 72
8
 73
4
 74
0
 40
0
 40
0
 40
0
 40
0
 40
1
 40
1
 40
1
 40
1
 10
520.010565
 20
2121.358099
 30
0.0
 10
486.416706
 20
2176.726399
 30
0.0
 10
478.224092
 20
2185.402092
 30
0.0
 10
452.862304
 20
2192.452119
 30
0.0
  0
SPLINE
  5
341
100
AcDbEntity
  8
Layer_1
 62
7
100
AcDbSpline
 70
8
 71
3
 72
8
 73
4
 74
0
 40
0
 40
0
 40
0
 40
0
 40
1
 40
1
 40
1
 40
1
 10
452.862304
 20
2192.452119
 30
0.0
 10
408.110573
 20
2204.898447
 30
0.0
 10
378.689810
 20
2167.755054
 30
0.0
 10
402.533536
 20
2128.915357
 30
0.0
  0
SPLINE
  5
342
100
AcDbEntity
  8
Layer_1
 62
7
100
AcDbSpline
 70
8
 71
3
 72
8
 73
4
 74
0
 40
0
 40
0
 40
0
 40
0
 40
1
 40
1
 40
1
 40
1
 10
402.533536
 20
2128.915357
 30
0.0
 10
414.492732
 20
2109.435527
 30
0.0
 10
426.246614
 20
2104.442880
 30
0.0
 10
453.561127
 20
2107.243360
 30
0.0
  0
SPLINE
  5
343
100
AcDbEntity
  8
Layer_1
 62
7
100
AcDbSpline
 70
8
 71
3
 72
8
 73
4
 74
0
 40
0
 40
0
 40
0
 40
0
 40
1
 40
1
 40
1
 40
1
 10
453.561127
 20
2107.243360
 30
0.0
 10
481.419523
 20
2110.098663
 30
0.0
 10
482.559160
 20
2106.476109
 30
0.0
 10
464.173671
 20
2073.475964
 30
0.0
  0
SPLINE
  5
344
100
AcDbEntity
  8
Layer_1
 62
7
100
AcDbSpline
 70
8
 71
3
 72
8
 73
4
 74
0
 40
0
 40
0
 40
0
 40
0
 40
1
 40
1
 40
1
 40
1
 10
464.173671
 20
2073.475964
 30
0.0
 10
448.841654
 20
2045.956223
 30
0.0
 10
425.563693
 20
2032.370343
 30
0.0
 10
388.404766
 20
2029.246543
 30
0.0
  0
SPLINE
  5
345
100
AcDbEntity
  8
Layer_1
 62
7
100
AcDbSpline
 70
8
 71
3
 72
8
 73
4
 74
0
 40
0
 40
0
 40
0
 40
0
 40
1
 40
1
 40
1
 40
1
 10
388.404766
 20
2029.246543
 30
0.0
 10
368.529335
 20
2027.574986
 30
0.0
 10
358.480544
 20
2024.363511
 30
0.0
 10
350.475243
 20
2017.118432
 30
0.0
  0
SPLINE
  5
346
100
AcDbEntity
  8
Layer_1
 62
7
100
AcDbSpline
 70
8
 71
3
 72
8
 73
4
 74
0
 40
0
 40
0
 40
0
 40
0
 40
1
 40
1
 40
1
 40
1
 10
350.475243
 20
2017.118432
 30
0.0
 10
338.753732
 20
2006.511161
 30
0.0
 10
303.954528
 20
1993.344552
 30
0.0
 10
288.244965
 20
1993.574696
 30
0.0
  0
SPLINE
  5
347
100
AcDbEntity
  8
Layer_1
 62
7
100
AcDbSpline
 70
8
 71
3
 72
8
 73
4
 74
0
 40
0
 40
0
 40
0
 40
0
 40
1
 40
1
 40
1
 40
1
 10
288.244965
 20
1993.574696
 30
0.0
 10
279.736800
 20
1993.574696
 30
0.0
 10
249.236097
 20
2003.288716
 30
0.0
 10
227.484503
 20
2012.676611
 30
0.0
  0
SPLINE
  5
348
100
AcDbEntity
  8
Layer_1
 62
7
100
AcDbSpline
 70
8
 71
3
 72
8
 73
4
 74
0
 40
0
 40
0
 40
0
 40
0
 40
1
 40
1
 40
1
 40
1
 10
227.484503
 20
2012.676611
 30
0.0
 10
220.877246
 20
2015.529107
 30
0.0
 10
220.426539
 20
2014.402906
 30
0.0
 10
223.873175
 20
2003.603786
 30
0.0
  0
SPLINE
  5
349
100
AcDbEntity
  8
Layer_1
 62
7
100
AcDbSpline
 70
8
 71
3
 72
8
 73
4
 74
0
 40
0
 40
0
 40
0
 40
0
 40
1
 40
1
 40
1
 40
1
 10
223.873175
 20
2003.603786
 30
0.0
 10
226.039122
 20
1996.819081
 30
0.0
 10
233.097653
 20
1973.746688
 30
0.0
 10
239.558927
 20
1952.329327
 30
0.0
  0
SPLINE
  5
34a
100
AcDbEntity
  8
Layer_1
 62
7
100
AcDbSpline
 70
8
 71
3
 72
8
 73
4
 74
0
 40
0
 40
0
 40
0
 40
0
 40
1
 40
1
 40
1
 40
1
 10
239.558927
 20
1952.329327
 30
0.0
 10
296.524659
 20
1763.508177
 30
0.0
 10
391.720017
 20
1625.114753
 30
0.0
 10
555.217305
 20
1493.418359
 30
0.0
  0
SPLINE
  5
34b
100
AcDbEntity
  8
Layer_1
 62
7
100
AcDbSpline
 70
8
 71
3
 72
8
 73
4
 74
0
 40
0
 40
0
 40
0
 40
0
 40
1
 40
1
 40
1
 40
1
 10
555.217305
 20
1493.418359
 30
0.0
 10
632.774754
 20
1430.944727
 30
0.0
 10
683.628241
 20
1400.876619
 30
0.0
 10
783.917273
 20
1358.189864
 30
0.0
  0
SPLINE
  5
34c
100
AcDbEntity
  8
Layer_1
 62
7
100
AcDbSpline
 70
8
 71
3
 72
8
 73
4
 74
0
 40
0
 40
0
 40
0
 40
0
 40
1
 40
1
 40
1
 40
1
 10
783.917273
 20
1358.189864
 30
0.0
 10
865.324301
 20
1323.542880
 30
0.0
 10
910.513020
 20
1311.113362
 30
0.0
 10
1036.576677
 20
1288.706797
 30
0.0
  0
SPLINE
  5
34d
100
AcDbEntity
  8
Layer_1
 62
7
100
AcDbSpline
 70
8
 71
3
 72
8
 73
4
 74
0
 40
0
 40
0
 40
0
 40
0
 40
1
 40
1
 40
1
 40
1
 10
1036.576677
 20
1288.706797
 30
0.0
 10
1048.556140
 20
1286.569452
 30
0.0
 10
1104.677348
 20
1284.618427
 30
0.0
 10
1161.290423
 20
1284.352652
 30
0.0
  0
SPLINE
  5
34e
100
AcDbEntity
  8
Layer_1
 62
7
100
AcDbSpline
 70
8
 71
3
 72
8
 73
4
 74
0
 40
0
 40
0
 40
0
 40
0
 40
1
 40
1
 40
1
 40
1
 10
1161.290423
 20
1284.352652
 30
0.0
 10
1245.719118
 20
1283.969040
 30
0.0
 10
1272.736448
 20
1285.393928
 30
0.0
 10
1311.579178
 20
1292.290998
 30
0.0
  0
LWPOLYLINE
  5
34f
100
AcDbEntity
  8
Layer_1
 62
7
100
AcDbPolyline
 90
1
 70
1
 10
1141.124327
 20
1315.681267
 30
0.0
  0
SPLINE
  5
350
100
AcDbEntity
  8
Layer_1
 62
7
100
AcDbSpline
 70
8
 71
3
 72
8
 73
4
 74
0
 40
0
 40
0
 40
0
 40
0
 40
1
 40
1
 40
1
 40
1
 10
1036.575855
 20
1221.599525
 30
0.0
 10
968.778377
 20
1227.219648
 30
0.0
 10
941.263114
 20
1232.530143
 30
0.0
 10
864.505941
 20
1254.807874
 30
0.0
  0
SPLINE
  5
351
100
AcDbEntity
  8
Layer_1
 62
7
100
AcDbSpline
 70
8
 71
3
 72
8
 73
4
 74
0
 40
0
 40
0
 40
0
 40
0
 40
1
 40
1
 40
1
 40
1
 10
864.505941
 20
1254.807874
 30
0.0
 10
778.468249
 20
1279.779275
 30
0.0
 10
675.093685
 20
1327.433959
 30
0.0
 10
595.017123
 20
1379.042736
 30
0.0
  0
SPLINE
  5
352
100
AcDbEntity
  8
Layer_1
 62
7
100
AcDbSpline
 70
8
 71
3
 72
8
 73
4
 74
0
 40
0
 40
0
 40
0
 40
0
 40
1
 40
1
 40
1
 40
1
 10
595.017123
 20
1379.042736
 30
0.0
 10
509.696565
 20
1434.030146
 30
0.0
 10
401.212170
 20
1534.841828
 30
0.0
 10
342.469942
 20
1613.726511
 30
0.0
  0
SPLINE
  5
353
100
AcDbEntity
  8
Layer_1
 62
7
100
AcDbSpline
 70
8
 71
3
 72
8
 73
4
 74
0
 40
0
 40
0
 40
0
 40
0
 40
1
 40
1
 40
1
 40
1
 10
342.469942
 20
1613.726511
 30
0.0
 10
179.441928
 20
1832.662398
 30
0.0
 10
113.737291
 20
2036.031249
 30
0.0
 10
121.009271
 20
2299.185502
 30
0.0
  0
SPLINE
  5
354
100
AcDbEntity
  8
Layer_1
 62
7
100
AcDbSpline
 70
8
 71
3
 72
8
 73
4
 74
0
 40
0
 40
0
 40
0
 40
0
 40
1
 40
1
 40
1
 40
1
 10
121.009271
 20
2299.185502
 30
0.0
 10
124.146932
 20
2412.717282
 30
0.0
 10
128.080842
 20
2447.251958
 30
0.0
 10
145.997170
 20
2518.535446
 30
0.0
  0
SPLINE
  5
355
100
AcDbEntity
  8
Layer_1
 62
7
100
AcDbSpline
 70
8
 71
3
 72
8
 73
4
 74
0
 40
0
 40
0
 40
0
 40
0
 40
1
 40
1
 40
1
 40
1
 10
145.997170
 20
2518.535446
 30
0.0
 10
169.160697
 20
2610.696041
 30
0.0
 10
193.104882
 20
2672.172248
 30
0.0
 10
239.780879
 20
2759.321204
 30
0.0
  0
SPLINE
  5
356
100
AcDbEntity
  8
Layer_1
 62
7
100
AcDbSpline
 70
8
 71
3
 72
8
 73
4
 74
0
 40
0
 40
0
 40
0
 40
0
 40
1
 40
1
 40
1
 40
1
 10
239.780879
 20
2759.321204
 30
0.0
 10
312.273339
 20
2894.667789
 30
0.0
 10
416.982819
 20
3018.168140
 30
0.0
 10
532.825991
 20
3104.958230
 30
0.0
  0
SPLINE
  5
357
100
AcDbEntity
  8
Layer_1
 62
7
100
AcDbSpline
 70
8
 71
3
 72
8
 73
4
 74
0
 40
0
 40
0
 40
0
 40
0
 40
1
 40
1
 40
1
 40
1
 10
532.825991
 20
3104.958230
 30
0.0
 10
578.758434
 20
3139.372434
 30
0.0
 10
646.359330
 20
3183.254045
 30
0.0
 10
653.442835
 20
3183.254045
 30
0.0
  0
SPLINE
  5
358
100
AcDbEntity
  8
Layer_1
 62
7
100
AcDbSpline
 70
8
 71
3
 72
8
 73
4
 74
0
 40
0
 40
0
 40
0
 40
0
 40
1
 40
1
 40
1
 40
1
 10
653.442835
 20
3183.254045
 30
0.0
 10
654.620003
 20
3183.254045
 30
0.0
 10
662.894113
 20
3187.813559
 30
0.0
 10
671.831329
 20
3193.389859
 30
0.0
  0
SPLINE
  5
359
100
AcDbEntity
  8
Layer_1
 62
7
100
AcDbSpline
 70
8
 71
3
 72
8
 73
4
 74
0
 40
0
 40
0
 40
0
 40
0
 40
1
 40
1
 40
1
 40
1
 10
671.831329
 20
3193.389859
 30
0.0
 10
746.599833
 20
3240.025037
 30
0.0
 10
816.243766
 20
3266.799608
 30
0.0
 10
921.136534
 20
3289.228113
 30
0.0
  0
SPLINE
  5
35a
100
AcDbEntity
  8
Layer_1
 62
7
100
AcDbSpline
 70
8
 71
3
 72
8
 73
4
 74
0
 40
0
 40
0
 40
0
 40
0
 40
1
 40
1
 40
1
 40
1
 10
921.136534
 20
3289.228113
 30
0.0
 10
1045.988156
 20
3315.925866
 30
0.0
 10
1219.464192
 20
3320.213823
 30
0.0
 10
1341.509382
 20
3299.621313
 30
0.0
  0
SPLINE
  5
35b
100
AcDbEntity
  8
Layer_1
 62
7
100
AcDbSpline
 70
8
 71
3
 72
8
 73
4
 74
0
 40
0
 40
0
 40
0
 40
0
 40
1
 40
1
 40
1
 40
1
 10
1341.509382
 20
3299.621313
 30
0.0
 10
1397.668716
 20
3290.145969
 30
0.0
 10
1488.675301
 20
3266.593814
 30
0.0
 10
1515.950101
 20
3254.479422
 30
0.0
  0
SPLINE
  5
35c
100
AcDbEntity
  8
Layer_1
 62
7
100
AcDbSpline
 70
8
 71
3
 72
8
 73
4
 74
0
 40
0
 40
0
 40
0
 40
0
 40
1
 40
1
 40
1
 40
1
 10
1515.950101
 20
3254.479422
 30
0.0
 10
1523.244390
 20
3251.240565
 30
0.0
 10
1545.787641
 20
3242.529439
 30
0.0
 10
1566.046372
 20
3235.120263
 30
0.0
  0
SPLINE
  5
35d
100
AcDbEntity
  8
Layer_1
 62
7
100
AcDbSpline
 70
8
 71
3
 72
8
 73
4
 74
0
 40
0
 40
0
 40
0
 40
0
 40
1
 40
1
 40
1
 40
1
 10
1566.046372
 20
3235.120263
 30
0.0
 10
1680.679975
 20
3193.200789
 30
0.0
 10
1843.279393
 20
3082.560056
 30
0.0
 10
1923.061549
 20
2992.188401
 30
0.0
  0
SPLINE
  5
35e
100
AcDbEntity
  8
Layer_1
 62
7
100
AcDbSpline
 70
8
 71
3
 72
8
 73
4
 74
0
 40
0
 40
0
 40
0
 40
0
 40
1
 40
1
 40
1
 40
1
 10
1923.061549
 20
2992.188401
 30
0.0
 10
2003.978695
 20
2900.534639
 30
0.0
 10
2088.596829
 20
2775.817378
 30
0.0
 10
2088.596829
 20
2748.209990
 30
0.0
  0
SPLINE
  5
35f
100
AcDbEntity
  8
Layer_1
 62
7
100
AcDbSpline
 70
8
 71
3
 72
8
 73
4
 74
0
 40
0
 40
0
 40
0
 40
0
 40
1
 40
1
 40
1
 40
1
 10
2088.596829
 20
2748.209990
 30
0.0
 10
2088.596829
 20
2744.384647
 30
0.0
 10
2096.477519
 20
2726.652570
 30
0.0
 10
2106.109193
 20
2708.808808
 30
0.0
  0
SPLINE
  5
360
100
AcDbEntity
  8
Layer_1
 62
7
100
AcDbSpline
 70
8
 71
3
 72
8
 73
4
 74
0
 40
0
 40
0
 40
0
 40
0
 40
1
 40
1
 40
1
 40
1
 10
2106.109193
 20
2708.808808
 30
0.0
 10
2140.333590
 20
2645.400511
 30
0.0
 10
2168.513887
 20
2563.786753
 30
0.0
 10
2191.026693
 20
2462.870813
 30
0.0
  0
SPLINE
  5
361
100
AcDbEntity
  8
Layer_1
 62
7
100
AcDbSpline
 70
8
 71
3
 72
8
 73
4
 74
0
 40
0
 40
0
 40
0
 40
0
 40
1
 40
1
 40
1
 40
1
 10
2191.026693
 20
2462.870813
 30
0.0
 10
2206.800376
 20
2392.162757
 30
0.0
 10
2210.435033
 20
2352.189261
 30
0.0
 10
2210.301550
 20
2250.867684
 30
0.0
  0
SPLINE
  5
362
100
AcDbEntity
  8
Layer_1
 62
7
100
AcDbSpline
 70
8
 71
3
 72
8
 73
4
 74
0
 40
0
 40
0
 40
0
 40
0
 40
1
 40
1
 40
1
 40
1
 10
2210.301550
 20
2250.867684
 30
0.0
 10
2210.134307
 20
2123.144686
 30
0.0
 10
2199.272258
 20
2053.497238
 30
0.0
 10
2162.729638
 20
1945.813146
 30
0.0
  0
SPLINE
  5
363
100
AcDbEntity
  8
Layer_1
 62
7
100
AcDbSpline
 70
8
 71
3
 72
8
 73
4
 74
0
 40
0
 40
0
 40
0
 40
0
 40
1
 40
1
 40
1
 40
1
 10
2162.729638
 20
1945.813146
 30
0.0
 10
2139.521296
 20
1877.423427
 30
0.0
 10
2083.379508
 20
1758.567574
 30
0.0
 10
2043.655631
 20
1693.731924
 30
0.0
  0
SPLINE
  5
364
100
AcDbEntity
  8
Layer_1
 62
7
100
AcDbSpline
 70
8
 71
3
 72
8
 73
4
 74
0
 40
0
 40
0
 40
0
 40
0
 40
1
 40
1
 40
1
 40
1
 10
2043.655631
 20
1693.731924
 30
0.0
 10
2032.328390
 20
1675.241099
 30
0.0
 10
2018.189188
 20
1649.929938
 30
0.0
 10
2012.234946
 20
1637.483950
 30
0.0
  0
SPLINE
  5
365
100
AcDbEntity
  8
Layer_1
 62
7
100
AcDbSpline
 70
8
 71
3
 72
8
 73
4
 74
0
 40
0
 40
0
 40
0
 40
0
 40
1
 40
1
 40
1
 40
1
 10
2012.234946
 20
1637.483950
 30
0.0
 10
1992.301575
 20
1595.813867
 30
0.0
 10
1878.319683
 20
1478.536397
 30
0.0
 10
1811.866645
 20
1431.320119
 30
0.0
  0
SPLINE
  5
366
100
AcDbEntity
  8
Layer_1
 62
7
100
AcDbSpline
 70
8
 71
3
 72
8
 73
4
 74
0
 40
0
 40
0
 40
0
 40
0
 40
1
 40
1
 40
1
 40
1
 10
1811.866645
 20
1431.320119
 30
0.0
 10
1717.852877
 20
1364.522474
 30
0.0
 10
1692.236936
 20
1349.007480
 30
0.0
 10
1611.593389
 20
1310.020042
 30
0.0
  0
SPLINE
  5
367
100
AcDbEntity
  8
Layer_1
 62
7
100
AcDbSpline
 70
8
 71
3
 72
8
 73
4
 74
0
 40
0
 40
0
 40
0
 40
0
 40
1
 40
1
 40
1
 40
1
 10
1611.593389
 20
1310.020042
 30
0.0
 10
1515.312166
 20
1263.472369
 30
0.0
 10
1449.632219
 20
1242.142740
 30
0.0
 10
1365.468336
 20
1230.096834
 30
0.0
  0
SPLINE
  5
368
100
AcDbEntity
  8
Layer_1
 62
7
100
AcDbSpline
 70
8
 71
3
 72
8
 73
4
 74
0
 40
0
 40
0
 40
0
 40
0
 40
1
 40
1
 40
1
 40
1
 10
1365.468336
 20
1230.096834
 30
0.0
 10
1253.591020
 20
1214.083171
 30
0.0
 10
1157.249193
 20
1211.595096
 30
0.0
 10
1036.575855
 20
1221.599525
 30
0.0
  0
LWPOLYLINE
  5
369
100
AcDbEntity
  8
Layer_1
 62
7
100
AcDbPolyline
 90
2
 70
0
 10
1311.579178
 20
1292.290998
 30
0.0
 10
1311.578356
 20
1292.290998
 30
0.0
  0
LWPOLYLINE
  5
36a
100
AcDbEntity
  8
Layer_1
 62
7
100
AcDbPolyline
 90
1
 70
1
 10
1036.575855
 20
1221.599525
 30
0.0
  0
LWPOLYLINE
  5
36b
100
AcDbEntity
  8
Layer_1
 62
7
100
AcDbPolyline
 90
2
 70
0
 10
86.121683
 20
-1910.513742
 30
0.0
 10
85.500047
 20
-1934.337087
 30
0.0
  0
SPLINE
  5
36c
100
AcDbEntity
  8
Layer_1
 62
7
100
AcDbSpline
 70
8
 71
3
 72
8
 73
4
 74
0
 40
0
 40
0
 40
0
 40
0
 40
1
 40
1
 40
1
 40
1
 10
529.308432
 20
555.998900
 30
0.0
 10
529.308432
 20
540.258727
 30
0.0
 10
542.068359
 20
527.498800
 30
0.0
 10
557.808533
 20
527.498800
 30
0.0
  0
SPLINE
  5
36d
100
AcDbEntity
  8
Layer_1
 62
7
100
AcDbSpline
 70
8
 71
3
 72
8
 73
4
 74
0
 40
0
 40
0
 40
0
 40
0
 40
1
 40
1
 40
1
 40
1
 10
557.808533
 20
527.498800
 30
0.0
 10
573.548706
 20
527.498800
 30
0.0
 10
586.308633
 20
540.258727
 30
0.0
 10
586.308633
 20
555.998900
 30
0.0
  0
SPLINE
  5
36e
100
AcDbEntity
  8
Layer_1
 62
7
100
AcDbSpline
 70
8
 71
3
 72
8
 73
4
 74
0
 40
0
 40
0
 40
0
 40
0
 40
1
 40
1
 40
1
 40
1
 10
586.308633
 20
555.998900
 30
0.0
 10
586.308633
 20
571.739074
 30
0.0
 10
573.548706
 20
584.499001
 30
0.0
 10
557.808533
 20
584.499001
 30
0.0
  0
SPLINE
  5
36f
100
AcDbEntity
  8
Layer_1
 62
7
100
AcDbSpline
 70
8
 71
3
 72
8
 73
4
 74
0
 40
0
 40
0
 40
0
 40
0
 40
1
 40
1
 40
1
 40
1
 10
557.808533
 20
584.499001
 30
0.0
 10
542.068359
 20
584.499001
 30
0.0
 10
529.308432
 20
571.739074
 30
0.0
 10
529.308432
 20
555.998900
 30
0.0
  0
SPLINE
  5
370
100
AcDbEntity
  8
Layer_1
 62
7
100
AcDbSpline
 70
8
 71
3
 72
8
 73
4
 74
0
 40
0
 40
0
 40
0
 40
0
 40
1
 40
1
 40
1
 40
1
 10
909.708414
 20
1008.401426
 30
0.0
 10
909.708414
 20
1000.614184
 30
0.0
 10
916.021222
 20
994.301376
 30
0.0
 10
923.808464
 20
994.301376
 30
0.0
  0
SPLINE
  5
371
100
AcDbEntity
  8
Layer_1
 62
7
100
AcDbSpline
 70
8
 71
3
 72
8
 73
4
 74
0
 40
0
 40
0
 40
0
 40
0
 40
1
 40
1
 40
1
 40
1
 10
923.808464
 20
994.301376
 30
0.0
 10
931.595705
 20
994.301376
 30
0.0
 10
937.908513
 20
1000.614184
 30
0.0
 10
937.908513
 20
1008.401426
 30
0.0
  0
SPLINE
  5
372
100
AcDbEntity
  8
Layer_1
 62
7
100
AcDbSpline
 70
8
 71
3
 72
8
 73
4
 74
0
 40
0
 40
0
 40
0
 40
0
 40
1
 40
1
 40
1
 40
1
 10
937.908513
 20
1008.401426
 30
0.0
 10
937.908513
 20
1016.188667
 30
0.0
 10
931.595705
 20
1022.501476
 30
0.0
 10
923.808464
 20
1022.501476
 30
0.0
  0
SPLINE
  5
373
100
AcDbEntity
  8
Layer_1
 62
7
100
AcDbSpline
 70
8
 71
3
 72
8
 73
4
 74
0
 40
0
 40
0
 40
0
 40
0
 40
1
 40
1
 40
1
 40
1
 10
923.808464
 20
1022.501476
 30
0.0
 10
916.021222
 20
1022.501476
 30
0.0
 10
909.708414
 20
1016.188667
 30
0.0
 10
909.708414
 20
1008.401426
 30
0.0
  0
LWPOLYLINE
  5
374
100
AcDbEntity
  8
Layer_1
 62
7
100
AcDbPolyline
 90
358
 70
1
 10
1798.909941
 20
738.099747
 30
0.0
 10
1798.909941
 20
794.499798
 30
0.0
 10
1774.309905
 20
794.499798
 30
0.0
 10
1774.309905
 20
851.499886
 30
0.0
 10
1798.909941
 20
851.499886
 30
0.0
 10
1798.909941
 20
907.899966
 30
0.0
 10
1774.309905
 20
907.899966
 30
0.0
 10
1774.309905
 20
964.900025
 30
0.0
 10
1798.909941
 20
964.900025
 30
0.0
 10
1798.909941
 20
1021.300105
 30
0.0
 10
1774.309905
 20
1021.300105
 30
0.0
 10
1774.309905
 20
1078.300165
 30
0.0
 10
833.508667
 20
1078.300165
 30
0.0
 10
819.708658
 20
1078.900172
 30
0.0
 10
805.308641
 20
1080.100188
 30
0.0
 10
791.508603
 20
1080.100188
 30
0.0
 10
777.708594
 20
1080.100188
 30
0.0
 10
764.508593
 20
1080.100188
 30
0.0
 10
750.708556
 20
1079.500180
 30
0.0
 10
737.508555
 20
1078.300165
 30
0.0
 10
724.308525
 20
1077.100177
 30
0.0
 10
711.108495
 20
1075.300182
 30
0.0
 10
697.908494
 20
1073.500159
 30
0.0
 10
685.308472
 20
1071.100156
 30
0.0
 10
672.708451
 20
1068.100174
 30
0.0
 10
660.108429
 20
1064.500156
 30
0.0
 10
648.108415
 20
1060.900166
 30
0.0
 10
636.708409
 20
1056.700139
 30
0.0
 10
624.708395
 20
1051.900134
 30
0.0
 10
613.908396
 20
1047.100128
 30
0.0
 10
602.508362
 20
1041.100135
 30
0.0
 10
592.308343
 20
1035.100114
 30
0.0
 10
586.908358
 20
1032.100104
 30
0.0
 10
582.108352
 20
1028.500114
 30
0.0
 10
576.708339
 20
1024.900095
 30
0.0
 10
571.908333
 20
1021.300105
 30
0.0
 10
567.108328
 20
1017.700087
 30
0.0
 10
562.308322
 20
1014.100097
 30
0.0
 10
558.108296
 20
1009.900099
 30
0.0
 10
553.308290
 20
1005.700073
 30
0.0
 10
549.108292
 20
1001.500075
 30
0.0
 10
544.908295
 20
997.300077
 30
0.0
 10
540.708297
 20
993.100079
 30
0.0
 10
536.508271
 20
988.300074
 30
0.0
 10
532.908281
 20
983.500068
 30
0.0
 10
528.708283
 20
978.700034
 30
0.0
 10
525.108264
 20
973.900029
 30
0.0
 10
521.508274
 20
968.500044
 30
0.0
 10
517.908256
 20
963.700038
 30
0.0
 10
514.908246
 20
958.300025
 30
0.0
 10
511.308255
 20
952.900011
 30
0.0
 10
508.308245
 20
946.900018
 30
0.0
 10
505.308234
 20
941.500005
 30
0.0
 10
502.308224
 20
935.499984
 30
0.0
 10
496.308231
 20
923.499970
 30
0.0
 10
490.908218
 20
911.499956
 30
0.0
 10
490.308210
 20
909.099953
 30
0.0
 10
489.108223
 20
906.699950
 30
0.0
 10
488.508215
 20
904.299948
 30
0.0
 10
487.308228
 20
901.299937
 30
0.0
 10
485.508204
 20
897.699947
 30
0.0
 10
484.308217
 20
893.499949
 30
0.0
 10
482.508222
 20
889.299923
 30
0.0
 10
480.708199
 20
884.499917
 30
0.0
 10
478.908204
 20
879.699912
 30
0.0
 10
476.508201
 20
873.699919
 30
0.0
 10
474.708206
 20
867.699898
 30
0.0
 10
472.308203
 20
861.099897
 30
0.0
 10
470.508208
 20
854.499897
 30
0.0
 10
468.108205
 20
846.699880
 30
0.0
 10
465.708202
 20
838.899864
 30
0.0
 10
463.908179
 20
830.499840
 30
0.0
 10
461.508176
 20
821.499837
 30
0.0
 10
459.708181
 20
812.499833
 30
0.0
 10
457.908186
 20
803.499830
 30
0.0
 10
456.108163
 20
793.899819
 30
0.0
 10
454.308168
 20
783.699800
 30
0.0
 10
453.108181
 20
774.099789
 30
0.0
 10
451.908165
 20
763.899770
 30
0.0
 10
450.708178
 20
754.299758
 30
0.0
 10
450.108170
 20
744.699747
 30
0.0
 10
449.508162
 20
735.099736
 30
0.0
 10
448.908154
 20
726.099704
 30
0.0
 10
448.308175
 20
717.099701
 30
0.0
 10
448.308175
 20
708.699705
 30
0.0
 10
448.308175
 20
700.899689
 30
0.0
 10
448.308175
 20
693.099673
 30
0.0
 10
448.308175
 20
685.899665
 30
0.0
 10
448.908154
 20
679.299664
 30
0.0
 10
448.908154
 20
673.299643
 30
0.0
 10
449.508162
 20
667.899629
 30
0.0
 10
449.508162
 20
662.499644
 30
0.0
 10
450.108170
 20
658.299618
 30
0.0
 10
450.108170
 20
653.499613
 30
0.0
 10
450.708178
 20
649.899623
 30
0.0
 10
450.708178
 20
646.299604
 30
0.0
 10
451.308157
 20
638.499616
 30
0.0
 10
451.908165
 20
634.899598
 30
0.0
 10
451.908165
 20
630.699600
 30
0.0
 10
452.508173
 20
626.499574
 30
0.0
 10
452.508173
 20
621.099589
 30
0.0
 10
453.108181
 20
615.699576
 30
0.0
 10
453.708160
 20
609.699554
 30
0.0
 10
454.308168
 20
603.099554
 30
0.0
 10
455.508183
 20
596.499553
 30
0.0
 10
456.708171
 20
588.699537
 30
0.0
 10
457.908186
 20
580.899521
 30
0.0
 10
459.708181
 20
572.499525
 30
0.0
 10
461.508176
 20
564.099501
 30
0.0
 10
463.908179
 20
555.099498
 30
0.0
 10
466.308182
 20
546.099495
 30
0.0
 10
469.308192
 20
537.099463
 30
0.0
 10
472.908211
 20
528.699467
 30
0.0
 10
476.508201
 20
519.699435
 30
0.0
 10
480.708199
 20
511.299440
 30
0.0
 10
485.508204
 20
502.899416
 30
0.0
 10
487.908207
 20
499.299426
 30
0.0
 10
490.908218
 20
495.099428
 30
0.0
 10
493.308220
 20
491.499410
 30
0.0
 10
496.308231
 20
487.899420
 30
0.0
 10
499.308241
 20
484.899409
 30
0.0
 10
502.308224
 20
481.299391
 30
0.0
 10
505.308234
 20
478.299380
 30
0.0
 10
508.308245
 20
475.899377
 30
0.0
 10
511.308255
 20
472.899395
 30
0.0
 10
514.908246
 20
470.499392
 30
0.0
 10
518.508264
 20
468.099389
 30
0.0
 10
522.108254
 20
465.699387
 30
0.0
 10
525.708272
 20
463.899363
 30
0.0
 10
529.308262
 20
462.099368
 30
0.0
 10
532.908281
 20
460.899381
 30
0.0
 10
536.508271
 20
459.099358
 30
0.0
 10
540.108289
 20
457.899370
 30
0.0
 10
544.308287
 20
457.299363
 30
0.0
 10
547.908305
 20
456.699355
 30
0.0
 10
551.508295
 20
456.099375
 30
0.0
 10
555.708293
 20
455.499368
 30
0.0
 10
559.308311
 20
455.499368
 30
0.0
 10
562.908330
 20
455.499368
 30
0.0
 10
567.108328
 20
455.499368
 30
0.0
 10
570.708318
 20
456.099375
 30
0.0
 10
574.308336
 20
456.699355
 30
0.0
 10
578.508334
 20
457.299363
 30
0.0
 10
582.108352
 20
458.499378
 30
0.0
 10
585.708342
 20
459.099358
 30
0.0
 10
589.308361
 20
460.899381
 30
0.0
 10
592.308343
 20
462.099368
 30
0.0
 10
595.908361
 20
463.899363
 30
0.0
 10
599.508351
 20
465.099379
 30
0.0
 10
602.508362
 20
467.499382
 30
0.0
 10
605.508372
 20
469.299377
 30
0.0
 10
608.508383
 20
471.099372
 30
0.0
 10
611.508365
 20
473.499374
 30
0.0
 10
613.908396
 20
475.899377
 30
0.0
 10
616.908379
 20
478.299380
 30
0.0
 10
619.308381
 20
481.299391
 30
0.0
 10
621.708384
 20
483.699393
 30
0.0
 10
624.108387
 20
486.699404
 30
0.0
 10
625.908410
 20
489.099407
 30
0.0
 10
627.708405
 20
492.099417
 30
0.0
 10
629.508400
 20
495.099428
 30
0.0
 10
631.308395
 20
498.099410
 30
0.0
 10
632.508411
 20
501.699429
 30
0.0
 10
634.308406
 20
504.699439
 30
0.0
 10
634.908414
 20
508.299429
 30
0.0
 10
636.108401
 20
511.299440
 30
0.0
 10
637.308417
 20
514.899430
 30
0.0
 10
637.908424
 20
517.899440
 30
0.0
 10
638.508404
 20
525.099449
 30
0.0
 10
639.108412
 20
532.299457
 30
0.0
 10
639.108412
 20
538.899486
 30
0.0
 10
638.508404
 20
546.099495
 30
0.0
 10
637.908424
 20
553.899482
 30
0.0
 10
636.708409
 20
561.099491
 30
0.0
 10
634.908414
 20
568.299499
 30
0.0
 10
631.308395
 20
583.299524
 30
0.0
 10
627.708405
 20
597.699540
 30
0.0
 10
625.908410
 20
605.499557
 30
0.0
 10
624.708395
 20
612.699565
 30
0.0
 10
622.908400
 20
619.899573
 30
0.0
 10
621.708384
 20
627.099582
 30
0.0
 10
621.108405
 20
634.299590
 30
0.0
 10
620.508397
 20
641.499599
 30
0.0
 10
621.108405
 20
648.699607
 30
0.0
 10
621.108405
 20
655.899615
 30
0.0
 10
622.308392
 20
663.099624
 30
0.0
 10
624.108387
 20
670.299632
 30
0.0
 10
625.908410
 20
676.899661
 30
0.0
 10
628.308413
 20
684.099670
 30
0.0
 10
631.308395
 20
690.699670
 30
0.0
 10
634.908414
 20
697.299671
 30
0.0
 10
639.108412
 20
703.899700
 30
0.0
 10
643.308409
 20
709.899693
 30
0.0
 10
648.108415
 20
716.499693
 30
0.0
 10
652.908421
 20
721.899707
 30
0.0
 10
658.308434
 20
727.899728
 30
0.0
 10
663.108440
 20
733.299741
 30
0.0
 10
668.508453
 20
738.099747
 30
0.0
 10
673.908466
 20
742.899752
 30
0.0
 10
679.308480
 20
747.699758
 30
0.0
 10
684.108485
 20
751.899756
 30
0.0
 10
688.908491
 20
755.499746
 30
0.0
 10
693.708496
 20
759.099764
 30
0.0
 10
697.908494
 20
762.099775
 30
0.0
 10
699.708489
 20
763.299762
 30
0.0
 10
701.508484
 20
764.499777
 30
0.0
 10
703.308508
 20
765.699765
 30
0.0
 10
705.108503
 20
766.899780
 30
0.0
 10
706.908498
 20
768.099767
 30
0.0
 10
708.108513
 20
768.699775
 30
0.0
 10
721.308514
 20
773.499781
 30
0.0
 10
735.108552
 20
777.699779
 30
0.0
 10
748.908561
 20
781.899776
 30
0.0
 10
763.308578
 20
785.499795
 30
0.0
 10
777.708594
 20
789.099813
 30
0.0
 10
792.708619
 20
792.099795
 30
0.0
 10
807.708644
 20
794.499798
 30
0.0
 10
822.708668
 20
796.899801
 30
0.0
 10
837.708664
 20
798.699824
 30
0.0
 10
853.308697
 20
800.499819
 30
0.0
 10
868.908729
 20
802.299814
 30
0.0
 10
885.108741
 20
803.499830
 30
0.0
 10
900.708745
 20
804.699817
 30
0.0
 10
916.908785
 20
805.299825
 30
0.0
 10
933.108797
 20
805.899833
 30
0.0
 10
948.708829
 20
806.499812
 30
0.0
 10
981.108853
 20
807.099820
 30
0.0
 10
1013.508905
 20
807.699828
 30
0.0
 10
1045.308949
 20
807.699828
 30
0.0
 10
1076.508985
 20
807.699828
 30
0.0
 10
1092.109018
 20
807.699828
 30
0.0
 10
1107.709022
 20
807.699828
 30
0.0
 10
1122.709046
 20
807.699828
 30
0.0
 10
1137.709071
 20
808.299836
 30
0.0
 10
1152.109088
 20
808.299836
 30
0.0
 10
1166.509104
 20
808.299836
 30
0.0
 10
1180.909121
 20
808.899815
 30
0.0
 10
1195.309138
 20
809.499823
 30
0.0
 10
1201.309159
 20
809.499823
 30
0.0
 10
1207.309152
 20
809.499823
 30
0.0
 10
1224.709179
 20
810.099831
 30
0.0
 10
1242.109207
 20
811.299818
 30
0.0
 10
1258.309218
 20
811.899826
 30
0.0
 10
1274.509259
 20
812.499833
 30
0.0
 10
1290.109263
 20
813.099841
 30
0.0
 10
1305.709295
 20
814.299828
 30
0.0
 10
1320.709320
 20
814.299828
 30
0.0
 10
1335.109336
 20
814.899836
 30
0.0
 10
1349.509353
 20
814.899836
 30
0.0
 10
1363.309362
 20
814.899836
 30
0.0
 10
1377.109371
 20
814.299828
 30
0.0
 10
1390.909408
 20
813.699821
 30
0.0
 10
1404.109410
 20
811.899826
 30
0.0
 10
1417.309439
 20
810.699838
 30
0.0
 10
1430.509440
 20
808.299836
 30
0.0
 10
1443.109462
 20
805.299825
 30
0.0
 10
1455.709484
 20
802.299814
 30
0.0
 10
1467.709498
 20
798.699824
 30
0.0
 10
1479.709512
 20
794.499798
 30
0.0
 10
1491.109518
 20
789.699793
 30
0.0
 10
1502.509553
 20
784.899787
 30
0.0
 10
1513.309551
 20
779.499774
 30
0.0
 10
1524.109578
 20
773.499781
 30
0.0
 10
1533.709589
 20
768.099767
 30
0.0
 10
1538.509595
 20
765.099757
 30
0.0
 10
1543.309600
 20
762.099775
 30
0.0
 10
1547.509598
 20
759.099764
 30
0.0
 10
1551.709596
 20
756.099753
 30
0.0
 10
1555.909622
 20
753.099743
 30
0.0
 10
1559.509612
 20
749.499753
 30
0.0
 10
1563.109630
 20
746.499742
 30
0.0
 10
1566.709620
 20
743.499732
 30
0.0
 10
1570.309639
 20
741.099729
 30
0.0
 10
1573.309649
 20
738.099747
 30
0.0
 10
1576.309632
 20
735.099736
 30
0.0
 10
1578.709634
 20
732.099726
 30
0.0
 10
1581.109637
 20
729.099715
 30
0.0
 10
1583.509640
 20
726.699712
 30
0.0
 10
1585.909643
 20
723.699702
 30
0.0
 10
1587.709666
 20
721.299699
 30
0.0
 10
1589.509661
 20
718.299717
 30
0.0
 10
1591.309656
 20
715.899714
 30
0.0
 10
1594.309667
 20
710.499700
 30
0.0
 10
1596.709670
 20
705.699695
 30
0.0
 10
1599.109672
 20
700.299681
 30
0.0
 10
1600.909667
 20
694.899668
 30
0.0
 10
1602.709662
 20
690.099662
 30
0.0
 10
1604.509686
 20
684.699677
 30
0.0
 10
1606.309681
 20
678.699656
 30
0.0
 10
1608.109676
 20
670.899640
 30
0.0
 10
1609.909671
 20
663.099624
 30
0.0
 10
1611.709694
 20
654.699628
 30
0.0
 10
1612.909681
 20
645.699625
 30
0.0
 10
1614.109697
 20
637.299601
 30
0.0
 10
1614.709705
 20
628.299597
 30
0.0
 10
1615.309684
 20
618.699586
 30
0.0
 10
1615.909692
 20
609.699554
 30
0.0
 10
1616.509700
 20
591.099540
 30
0.0
 10
1617.109708
 20
571.899517
 30
0.0
 10
1617.109708
 20
553.299503
 30
0.0
 10
1617.709687
 20
534.699460
 30
0.0
 10
1617.709687
 20
525.699457
 30
0.0
 10
1618.309695
 20
516.699453
 30
0.0
 10
1618.309695
 20
508.299429
 30
0.0
 10
1618.909703
 20
499.899434
 30
0.0
 10
1620.109690
 20
492.099417
 30
0.0
 10
1620.709698
 20
483.699393
 30
0.0
 10
1621.909713
 20
476.499385
 30
0.0
 10
1623.709708
 20
469.299377
 30
0.0
 10
1624.909695
 20
462.099368
 30
0.0
 10
1626.709719
 20
455.499368
 30
0.0
 10
1629.109722
 20
449.499346
 30
0.0
 10
1631.509724
 20
443.499354
 30
0.0
 10
1634.509707
 20
438.099340
 30
0.0
 10
1636.909709
 20
433.299335
 30
0.0
 10
1640.509728
 20
428.499329
 30
0.0
 10
1643.509738
 20
424.299331
 30
0.0
 10
1647.709736
 20
420.699313
 30
0.0
 10
1651.309726
 20
417.099323
 30
0.0
 10
1655.509752
 20
413.499304
 30
0.0
 10
1659.709750
 20
410.499294
 30
0.0
 10
1664.509756
 20
408.099291
 30
0.0
 10
1668.709754
 20
405.699288
 30
0.0
 10
1673.509759
 20
403.899293
 30
0.0
 10
1678.309765
 20
402.099298
 30
0.0
 10
1683.709778
 20
400.899283
 30
0.0
 10
1688.509784
 20
399.699295
 30
0.0
 10
1693.309789
 20
398.499280
 30
0.0
 10
1698.709803
 20
397.899300
 30
0.0
 10
1708.909822
 20
396.699285
 30
0.0
 10
1718.509833
 20
396.099277
 30
0.0
 10
1728.109844
 20
395.499298
 30
0.0
 10
1732.309842
 20
395.499298
 30
0.0
 10
1736.509840
 20
395.499298
 30
0.0
 10
1740.709866
 20
395.499298
 30
0.0
 10
1744.909864
 20
396.099277
 30
0.0
 10
1748.509854
 20
396.099277
 30
0.0
 10
1752.709880
 20
396.099277
 30
0.0
 10
1755.709862
 20
396.099277
 30
0.0
 10
1759.309880
 20
396.699285
 30
0.0
 10
1762.309891
 20
396.699285
 30
0.0
 10
1765.309902
 20
396.699285
 30
0.0
 10
1767.709904
 20
397.299293
 30
0.0
 10
1770.109907
 20
397.299293
 30
0.0
 10
1772.509910
 20
397.299293
 30
0.0
 10
1774.309905
 20
397.899300
 30
0.0
 10
1798.909941
 20
397.899300
 30
0.0
 10
1798.909941
 20
454.299352
 30
0.0
 10
1774.309905
 20
454.299352
 30
0.0
 10
1774.309905
 20
511.299440
 30
0.0
 10
1798.909941
 20
511.299440
 30
0.0
 10
1798.909941
 20
567.699520
 30
0.0
 10
1774.309905
 20
567.699520
 30
0.0
 10
1774.309905
 20
624.699579
 30
0.0
 10
1798.909941
 20
624.699579
 30
0.0
 10
1798.909941
 20
681.099659
 30
0.0
 10
1774.309905
 20
681.099659
 30
0.0
 10
1774.309905
 20
738.099747
 30
0.0
  0
LWPOLYLINE
  5
375
100
AcDbEntity
  8
Layer_1
 62
7
100
AcDbPolyline
 90
4
 70
1
 10
6918.116702
 20
0.698767
 30
0.0
 10
6918.116702
 20
3459.703231
 30
0.0
 10
0.707526
 20
3459.703231
 30
0.0
 10
0.707526
 20
0.698767
 30
0.0
  0
SPLINE
  5
376
100
AcDbEntity
  8
Layer_1
 62
7
100
AcDbSpline
 70
8
 71
3
 72
8
 73
4
 74
0
 40
0
 40
0
 40
0
 40
0
 40
1
 40
1
 40
1
 40
1
 10
2001.109078
 20
345.399484
 30
0.0
 10
2001.109078
 20
329.659310
 30
0.0
 10
2013.869005
 20
316.899383
 30
0.0
 10
2029.609179
 20
316.899383
 30
0.0
  0
SPLINE
  5
377
100
AcDbEntity
  8
Layer_1
 62
7
100
AcDbSpline
 70
8
 71
3
 72
8
 73
4
 74
0
 40
0
 40
0
 40
0
 40
0
 40
1
 40
1
 40
1
 40
1
 10
2029.609179
 20
316.899383
 30
0.0
 10
2045.349352
 20
316.899383
 30
0.0
 10
2058.109279
 20
329.659310
 30
0.0
 10
2058.109279
 20
345.399484
 30
0.0
  0
SPLINE
  5
378
100
AcDbEntity
  8
Layer_1
 62
7
100
AcDbSpline
 70
8
 71
3
 72
8
 73
4
 74
0
 40
0
 40
0
 40
0
 40
0
 40
1
 40
1
 40
1
 40
1
 10
2058.109279
 20
345.399484
 30
0.0
 10
2058.109279
 20
361.139657
 30
0.0
 10
2045.349352
 20
373.899584
 30
0.0
 10
2029.609179
 20
373.899584
 30
0.0
  0
SPLINE
  5
379
100
AcDbEntity
  8
Layer_1
 62
7
100
AcDbSpline
 70
8
 71
3
 72
8
 73
4
 74
0
 40
0
 40
0
 40
0
 40
0
 40
1
 40
1
 40
1
 40
1
 10
2029.609179
 20
373.899584
 30
0.0
 10
2013.869005
 20
373.899584
 30
0.0
 10
2001.109078
 20
361.139657
 30
0.0
 10
2001.109078
 20
345.399484
 30
0.0
  0
SPLINE
  5
37a
100
AcDbEntity
  8
Layer_1
 62
7
100
AcDbSpline
 70
8
 71
3
 72
8
 73
4
 74
0
 40
0
 40
0
 40
0
 40
0
 40
1
 40
1
 40
1
 40
1
 10
3137.511608
 20
734.799350
 30
0.0
 10
3137.511608
 20
719.059176
 30
0.0
 10
3150.271535
 20
706.299249
 30
0.0
 10
3166.011708
 20
706.299249
 30
0.0
  0
SPLINE
  5
37b
100
AcDbEntity
  8
Layer_1
 62
7
100
AcDbSpline
 70
8
 71
3
 72
8
 73
4
 74
0
 40
0
 40
0
 40
0
 40
0
 40
1
 40
1
 40
1
 40
1
 10
3166.011708
 20
706.299249
 30
0.0
 10
3181.751882
 20
706.299249
 30
0.0
 10
3194.511809
 20
719.059176
 30
0.0
 10
3194.511809
 20
734.799350
 30
0.0
  0
SPLINE
  5
37c
100
AcDbEntity
  8
Layer_1
 62
7
100
AcDbSpline
 70
8
 71
3
 72
8
 73
4
 74
0
 40
0
 40
0
 40
0
 40
0
 40
1
 40
1
 40
1
 40
1
 10
3194.511809
 20
734.799350
 30
0.0
 10
3194.511809
 20
750.539523
 30
0.0
 10
3181.751882
 20
763.299450
 30
0.0
 10
3166.011708
 20
763.299450
 30
0.0
  0
SPLINE
  5
37d
100
AcDbEntity
  8
Layer_1
 62
7
100
AcDbSpline
 70
8
 71
3
 72
8
 73
4
 74
0
 40
0
 40
0
 40
0
 40
0
 40
1
 40
1
 40
1
 40
1
 10
3166.011708
 20
763.299450
 30
0.0
 10
3150.271535
 20
763.299450
 30
0.0
 10
3137.511608
 20
750.539523
 30
0.0
 10
3137.511608
 20
734.799350
 30
0.0
  0
LWPOLYLINE
  5
37e
100
AcDbEntity
  8
Layer_1
 62
7
100
AcDbPolyline
 90
339
 70
1
 10
1864.310024
 20
617.499571
 30
0.0
 10
1888.310052
 20
617.499571
 30
0.0
 10
1888.310052
 20
560.499511
 30
0.0
 10
1864.310024
 20
560.499511
 30
0.0
 10
1864.310024
 20
504.099431
 30
0.0
 10
1888.310052
 20
504.099431
 30
0.0
 10
1888.310052
 20
447.099344
 30
0.0
 10
1864.310024
 20
447.099344
 30
0.0
 10
1864.310024
 20
390.699292
 30
0.0
 10
1888.310052
 20
390.699292
 30
0.0
 10
1888.310052
 20
333.699204
 30
0.0
 10
1864.310024
 20
333.699204
 30
0.0
 10
1864.310024
 20
277.299124
 30
0.0
 10
1888.310052
 20
277.299124
 30
0.0
 10
1888.310052
 20
220.299065
 30
0.0
 10
2256.710524
 20
217.899062
 30
0.0
 10
2285.510558
 20
214.299044
 30
0.0
 10
2313.710612
 20
210.699054
 30
0.0
 10
2341.910638
 20
207.699043
 30
0.0
 10
2368.910676
 20
205.299041
 30
0.0
 10
2395.910715
 20
202.899038
 30
0.0
 10
2422.310745
 20
200.499035
 30
0.0
 10
2448.710776
 20
198.699040
 30
0.0
 10
2474.510828
 20
197.499024
 30
0.0
 10
2499.710843
 20
195.699029
 30
0.0
 10
2524.310879
 20
195.099022
 30
0.0
 10
2548.910914
 20
194.499014
 30
0.0
 10
2572.910942
 20
193.899034
 30
0.0
 10
2596.310962
 20
193.899034
 30
0.0
 10
2619.711011
 20
193.899034
 30
0.0
 10
2642.511023
 20
194.499014
 30
0.0
 10
2664.711056
 20
195.099022
 30
0.0
 10
2686.911089
 20
196.299037
 30
0.0
 10
2708.511115
 20
197.499024
 30
0.0
 10
2729.511160
 20
198.699040
 30
0.0
 10
2749.911170
 20
200.499035
 30
0.0
 10
2770.311208
 20
202.899038
 30
0.0
 10
2790.111238
 20
205.299041
 30
0.0
 10
2809.311260
 20
207.699043
 30
0.0
 10
2828.511283
 20
210.699054
 30
0.0
 10
2847.111297
 20
214.299044
 30
0.0
 10
2865.111333
 20
217.899062
 30
0.0
 10
2883.111351
 20
221.499052
 30
0.0
 10
2899.911370
 20
225.699050
 30
0.0
 10
2916.711393
 20
229.899076
 30
0.0
 10
2933.511415
 20
234.699082
 30
0.0
 10
2949.711435
 20
239.499087
 30
0.0
 10
2965.311456
 20
244.299093
 30
0.0
 10
2980.311475
 20
249.699106
 30
0.0
 10
2995.311497
 20
255.699099
 30
0.0
 10
3009.711514
 20
261.699120
 30
0.0
 10
3023.511534
 20
267.699113
 30
0.0
 10
3037.311552
 20
274.299114
 30
0.0
 10
3050.511567
 20
280.899143
 30
0.0
 10
3063.111586
 20
287.499143
 30
0.0
 10
3075.711602
 20
294.699152
 30
0.0
 10
3087.111617
 20
301.899160
 30
0.0
 10
3099.111631
 20
309.699176
 30
0.0
 10
3109.911646
 20
317.499193
 30
0.0
 10
3120.711659
 20
325.299180
 30
0.0
 10
3130.911672
 20
333.699204
 30
0.0
 10
3141.111687
 20
342.099228
 30
0.0
 10
3150.711699
 20
351.099232
 30
0.0
 10
3159.711711
 20
359.499227
 30
0.0
 10
3168.711723
 20
368.499259
 30
0.0
 10
3177.111734
 20
378.099270
 30
0.0
 10
3185.511745
 20
387.099274
 30
0.0
 10
3192.711754
 20
396.699285
 30
0.0
 10
3200.511765
 20
406.299296
 30
0.0
 10
3207.111774
 20
416.499315
 30
0.0
 10
3213.711783
 20
426.099326
 30
0.0
 10
3219.711790
 20
436.299345
 30
0.0
 10
3225.711797
 20
446.499364
 30
0.0
 10
3231.111805
 20
456.699355
 30
0.0
 10
3236.511812
 20
467.499382
 30
0.0
 10
3241.311818
 20
477.699401
 30
0.0
 10
3246.111823
 20
488.499399
 30
0.0
 10
3250.311830
 20
499.299426
 30
0.0
 10
3253.911834
 20
510.099424
 30
0.0
 10
3257.511838
 20
520.899451
 30
0.0
 10
3260.511843
 20
531.699449
 30
0.0
 10
3263.511848
 20
542.499476
 30
0.0
 10
3266.511850
 20
553.299503
 30
0.0
 10
3268.311854
 20
564.099501
 30
0.0
 10
3270.711856
 20
574.899528
 30
0.0
 10
3272.511857
 20
585.699526
 30
0.0
 10
3273.711861
 20
595.899545
 30
0.0
 10
3274.911863
 20
606.699572
 30
0.0
 10
3276.111864
 20
617.499571
 30
0.0
 10
3276.711863
 20
627.699590
 30
0.0
 10
3277.311865
 20
638.499616
 30
0.0
 10
3277.311865
 20
648.699607
 30
0.0
 10
3277.311865
 20
658.899626
 30
0.0
 10
3277.311865
 20
668.499637
 30
0.0
 10
3276.711863
 20
678.699656
 30
0.0
 10
3276.111864
 20
688.299667
 30
0.0
 10
3274.911863
 20
697.899679
 30
0.0
 10
3274.311861
 20
706.899682
 30
0.0
 10
3273.111859
 20
715.899714
 30
0.0
 10
3271.311856
 20
724.899717
 30
0.0
 10
3269.511855
 20
733.899721
 30
0.0
 10
3267.711851
 20
742.299744
 30
0.0
 10
3265.911851
 20
750.099761
 30
0.0
 10
3263.511848
 20
758.499756
 30
0.0
 10
3261.111842
 20
765.699765
 30
0.0
 10
3258.711840
 20
773.499781
 30
0.0
 10
3255.711837
 20
780.099781
 30
0.0
 10
3253.311835
 20
787.299790
 30
0.0
 10
3249.711828
 20
793.899819
 30
0.0
 10
3246.711826
 20
799.899812
 30
0.0
 10
3243.711821
 20
805.899833
 30
0.0
 10
3240.111816
 20
811.299818
 30
0.0
 10
3236.511812
 20
816.699831
 30
0.0
 10
3232.311806
 20
821.499837
 30
0.0
 10
3228.711802
 20
825.699835
 30
0.0
 10
3224.511795
 20
830.499840
 30
0.0
 10
3220.311789
 20
834.099859
 30
0.0
 10
3216.111786
 20
837.699877
 30
0.0
 10
3211.311777
 20
840.699859
 30
0.0
 10
3206.511772
 20
843.699870
 30
0.0
 10
3201.711766
 20
846.099873
 30
0.0
 10
3196.911760
 20
848.499875
 30
0.0
 10
3192.111752
 20
850.299870
 30
0.0
 10
3187.311747
 20
851.499886
 30
0.0
 10
3181.911740
 20
852.699873
 30
0.0
 10
3176.511733
 20
853.299881
 30
0.0
 10
3171.111726
 20
853.899889
 30
0.0
 10
3165.711719
 20
853.899889
 30
0.0
 10
3160.311712
 20
853.899889
 30
0.0
 10
3154.911705
 20
853.299881
 30
0.0
 10
3149.511698
 20
852.099894
 30
0.0
 10
3144.111691
 20
850.899878
 30
0.0
 10
3138.711684
 20
849.099883
 30
0.0
 10
3133.311676
 20
846.699880
 30
0.0
 10
3128.511669
 20
844.299878
 30
0.0
 10
3123.111664
 20
841.899875
 30
0.0
 10
3118.311656
 20
838.899864
 30
0.0
 10
3113.511650
 20
835.299874
 30
0.0
 10
3108.711645
 20
831.699856
 30
0.0
 10
3104.511639
 20
827.499858
 30
0.0
 10
3100.311632
 20
823.299832
 30
0.0
 10
3096.711628
 20
818.499826
 30
0.0
 10
3093.111624
 20
813.699821
 30
0.0
 10
3089.511620
 20
808.299836
 30
0.0
 10
3086.511615
 20
802.899822
 30
0.0
 10
3083.511613
 20
796.899801
 30
0.0
 10
3081.111607
 20
790.899808
 30
0.0
 10
3078.711604
 20
784.899787
 30
0.0
 10
3076.911604
 20
778.299786
 30
0.0
 10
3075.111600
 20
771.099778
 30
0.0
 10
3073.311599
 20
764.499777
 30
0.0
 10
3072.111595
 20
757.299769
 30
0.0
 10
3071.511596
 20
749.499753
 30
0.0
 10
3070.311594
 20
742.299744
 30
0.0
 10
3069.711592
 20
734.499728
 30
0.0
 10
3069.111593
 20
726.699712
 30
0.0
 10
3067.911592
 20
710.499700
 30
0.0
 10
3067.311590
 20
694.299689
 30
0.0
 10
3066.111588
 20
678.099648
 30
0.0
 10
3065.511589
 20
669.699653
 30
0.0
 10
3064.911587
 20
661.299629
 30
0.0
 10
3063.711585
 20
653.499613
 30
0.0
 10
3062.511584
 20
645.099617
 30
0.0
 10
3060.711580
 20
637.299601
 30
0.0
 10
3058.911580
 20
628.899577
 30
0.0
 10
3056.511577
 20
621.099589
 30
0.0
 10
3054.111574
 20
613.299573
 30
0.0
 10
3051.111569
 20
606.099564
 30
0.0
 10
3048.111564
 20
598.299548
 30
0.0
 10
3043.911561
 20
591.099540
 30
0.0
 10
3039.711554
 20
583.899531
 30
0.0
 10
3034.911549
 20
576.699523
 30
0.0
 10
3029.511541
 20
570.099522
 30
0.0
 10
3024.111533
 20
563.499494
 30
0.0
 10
3017.511524
 20
557.499501
 30
0.0
 10
3010.911515
 20
550.899500
 30
0.0
 10
3003.111508
 20
545.499487
 30
0.0
 10
2995.311497
 20
539.499466
 30
0.0
 10
2986.911484
 20
534.099481
 30
0.0
 10
2977.911473
 20
528.699467
 30
0.0
 10
2968.311461
 20
523.899462
 30
0.0
 10
2958.111448
 20
519.099456
 30
0.0
 10
2947.911435
 20
514.299450
 30
0.0
 10
2936.511420
 20
510.099424
 30
0.0
 10
2925.111405
 20
505.899426
 30
0.0
 10
2913.711391
 20
502.299436
 30
0.0
 10
2901.111372
 20
498.099410
 30
0.0
 10
2888.511356
 20
495.099428
 30
0.0
 10
2875.311352
 20
491.499410
 30
0.0
 10
2861.511314
 20
488.499399
 30
0.0
 10
2847.711305
 20
485.499417
 30
0.0
 10
2833.911296
 20
483.099414
 30
0.0
 10
2819.511279
 20
480.699383
 30
0.0
 10
2804.511255
 20
478.299380
 30
0.0
 10
2790.111238
 20
475.899377
 30
0.0
 10
2775.111213
 20
474.099382
 30
0.0
 10
2759.511181
 20
472.299387
 30
0.0
 10
2744.511156
 20
470.499392
 30
0.0
 10
2728.911152
 20
469.299377
 30
0.0
 10
2697.711116
 20
466.299366
 30
0.0
 10
2666.511080
 20
464.499371
 30
0.0
 10
2635.911023
 20
462.699376
 30
0.0
 10
2620.311019
 20
462.099368
 30
0.0
 10
2605.310994
 20
461.499360
 30
0.0
 10
2590.310970
 20
460.899381
 30
0.0
 10
2575.310945
 20
460.299373
 30
0.0
 10
2560.310921
 20
459.699365
 30
0.0
 10
2545.910904
 20
459.699365
 30
0.0
 10
2532.110895
 20
459.099358
 30
0.0
 10
2517.710878
 20
459.099358
 30
0.0
 10
2504.510848
 20
459.099358
 30
0.0
 10
2490.710839
 20
458.499378
 30
0.0
 10
2478.110818
 20
458.499378
 30
0.0
 10
2464.910816
 20
458.499378
 30
0.0
 10
2452.910774
 20
458.499378
 30
0.0
 10
2440.910760
 20
458.499378
 30
0.0
 10
2428.910746
 20
458.499378
 30
0.0
 10
2417.510740
 20
459.099358
 30
0.0
 10
2406.710713
 20
459.099358
 30
0.0
 10
2395.910715
 20
459.099358
 30
0.0
 10
2385.710696
 20
459.699365
 30
0.0
 10
2375.510677
 20
460.299373
 30
0.0
 10
2365.910666
 20
460.299373
 30
0.0
 10
2356.310654
 20
460.899381
 30
0.0
 10
2347.310651
 20
461.499360
 30
0.0
 10
2338.310648
 20
462.099368
 30
0.0
 10
2329.910624
 20
462.699376
 30
0.0
 10
2322.110607
 20
463.299384
 30
0.0
 10
2314.310620
 20
464.499371
 30
0.0
 10
2306.510603
 20
465.099379
 30
0.0
 10
2299.310595
 20
466.299366
 30
0.0
 10
2292.110587
 20
467.499382
 30
0.0
 10
2284.910578
 20
468.699369
 30
0.0
 10
2278.310549
 20
469.899384
 30
0.0
 10
2271.710549
 20
471.699379
 30
0.0
 10
2265.710556
 20
473.499374
 30
0.0
 10
2259.110527
 20
475.299398
 30
0.0
 10
2253.110534
 20
477.099393
 30
0.0
 10
2247.710521
 20
478.899388
 30
0.0
 10
2241.710499
 20
481.299391
 30
0.0
 10
2236.310514
 20
483.699393
 30
0.0
 10
2230.910501
 20
486.099396
 30
0.0
 10
2225.510488
 20
488.499399
 30
0.0
 10
2220.110474
 20
491.499410
 30
0.0
 10
2214.710489
 20
494.499420
 30
0.0
 10
2209.910455
 20
497.499431
 30
0.0
 10
2204.510470
 20
501.099421
 30
0.0
 10
2199.710465
 20
504.699439
 30
0.0
 10
2194.910459
 20
508.299429
 30
0.0
 10
2190.110454
 20
511.899448
 30
0.0
 10
2184.710440
 20
516.099445
 30
0.0
 10
2179.910435
 20
520.299443
 30
0.0
 10
2175.110429
 20
525.099449
 30
0.0
 10
2170.910431
 20
529.899454
 30
0.0
 10
2166.110426
 20
534.699460
 30
0.0
 10
2161.310392
 20
539.499466
 30
0.0
 10
2156.510386
 20
544.899479
 30
0.0
 10
2151.710380
 20
550.299492
 30
0.0
 10
2146.910375
 20
555.699506
 30
0.0
 10
2142.710377
 20
561.699499
 30
0.0
 10
2137.910371
 20
567.699520
 30
0.0
 10
2133.110366
 20
573.699513
 30
0.0
 10
2128.910368
 20
580.299513
 30
0.0
 10
2124.110362
 20
586.899542
 30
0.0
 10
2119.910365
 20
593.499543
 30
0.0
 10
2115.110359
 20
600.699551
 30
0.0
 10
2113.910343
 20
612.099557
 30
0.0
 10
2112.710328
 20
623.499592
 30
0.0
 10
2111.510341
 20
634.299590
 30
0.0
 10
2109.710346
 20
645.699625
 30
0.0
 10
2108.510330
 20
655.899615
 30
0.0
 10
2106.710335
 20
666.699642
 30
0.0
 10
2104.910340
 20
676.899661
 30
0.0
 10
2103.110317
 20
687.099680
 30
0.0
 10
2101.310322
 20
696.699691
 30
0.0
 10
2098.910319
 20
706.299703
 30
0.0
 10
2096.510316
 20
715.899714
 30
0.0
 10
2094.710321
 20
725.499725
 30
0.0
 10
2092.310318
 20
734.499728
 30
0.0
 10
2089.310308
 20
742.899752
 30
0.0
 10
2086.910305
 20
751.299748
 30
0.0
 10
2084.510302
 20
759.699772
 30
0.0
 10
2081.510291
 20
768.099767
 30
0.0
 10
2078.510309
 20
775.899784
 30
0.0
 10
2075.510299
 20
783.099792
 30
0.0
 10
2072.510288
 20
790.899808
 30
0.0
 10
2068.910298
 20
797.499809
 30
0.0
 10
2065.910287
 20
804.699817
 30
0.0
 10
2062.310269
 20
811.299818
 30
0.0
 10
2058.710279
 20
817.299839
 30
0.0
 10
2055.110261
 20
823.899840
 30
0.0
 10
2050.910263
 20
829.299853
 30
0.0
 10
2047.310245
 20
835.299874
 30
0.0
 10
2043.110247
 20
840.699859
 30
0.0
 10
2038.910249
 20
845.499865
 30
0.0
 10
2034.710251
 20
850.299870
 30
0.0
 10
2030.510225
 20
855.099876
 30
0.0
 10
2026.310227
 20
859.299902
 30
0.0
 10
2021.510222
 20
863.499900
 30
0.0
 10
2017.310224
 20
867.699898
 30
0.0
 10
2012.510218
 20
871.299916
 30
0.0
 10
2007.710213
 20
874.299898
 30
0.0
 10
2003.510186
 20
877.899917
 30
0.0
 10
1998.710181
 20
880.899927
 30
0.0
 10
1993.310196
 20
883.299930
 30
0.0
 10
1988.510190
 20
885.699933
 30
0.0
 10
1983.710185
 20
888.099936
 30
0.0
 10
1978.910179
 20
890.499939
 30
0.0
 10
1974.110173
 20
892.299934
 30
0.0
 10
1968.710160
 20
894.099929
 30
0.0
 10
1963.910154
 20
895.299944
 30
0.0
 10
1959.110149
 20
897.099939
 30
0.0
 10
1954.310143
 20
897.699947
 30
0.0
 10
1949.510138
 20
898.899934
 30
0.0
 10
1944.710132
 20
900.099950
 30
0.0
 10
1939.910126
 20
900.699957
 30
0.0
 10
1935.110121
 20
901.299937
 30
0.0
 10
1930.910095
 20
901.899945
 30
0.0
 10
1926.110089
 20
901.899945
 30
0.0
 10
1921.910091
 20
902.499952
 30
0.0
 10
1917.710093
 20
902.499952
 30
0.0
 10
1913.510096
 20
902.499952
 30
0.0
 10
1909.910077
 20
902.499952
 30
0.0
 10
1906.310059
 20
902.499952
 30
0.0
 10
1902.710069
 20
902.499952
 30
0.0
 10
1899.110050
 20
902.499952
 30
0.0
 10
1896.110068
 20
901.899945
 30
0.0
 10
1893.710065
 20
901.899945
 30
0.0
 10
1890.710055
 20
901.299937
 30
0.0
 10
1888.310052
 20
900.699957
 30
0.0
 10
1864.310024
 20
900.699957
 30
0.0
 10
1864.310024
 20
844.299878
 30
0.0
 10
1888.310052
 20
844.299878
 30
0.0
 10
1888.310052
 20
787.299790
 30
0.0
 10
1864.310024
 20
787.299790
 30
0.0
 10
1864.310024
 20
730.899710
 30
0.0
 10
1888.310052
 20
730.899710
 30
0.0
 10
1888.310052
 20
673.899651
 30
0.0
 10
1864.310024
 20
673.899651
 30
0.0
  0
LWPOLYLINE
  5
37f
100
AcDbEntity
  8
Layer_1
 62
7
100
AcDbPolyline
 90
3
 70
0
 10
871.908711
 20
2461.302124
 30
0.0
 10
921.108783
 20
2432.501920
 30
0.0
 10
896.508747
 20
2390.501942
 30
0.0
  0
LWPOLYLINE
  5
380
100
AcDbEntity
  8
Layer_1
 62
7
100
AcDbPolyline
 90
3
 70
0
 10
1708.309814
 20
2602.902204
 30
0.0
 10
1757.509885
 20
2631.102315
 30
0.0
 10
1782.109921
 20
2589.102053
 30
0.0
  0
LWPOLYLINE
  5
381
100
AcDbEntity
  8
Layer_1
 62
7
100
AcDbPolyline
 90
3
 70
0
 10
1536.709600
 20
2447.501973
 30
0.0
 10
1512.109564
 20
2489.501951
 30
0.0
 10
1561.309607
 20
2517.702062
 30
0.0
  0
LWPOLYLINE
  5
382
100
AcDbEntity
  8
Layer_1
 62
7
100
AcDbPolyline
 90
3
 70
0
 10
626.508390
 20
2602.902204
 30
0.0
 10
601.908354
 20
2560.902226
 30
0.0
 10
553.308290
 20
2589.102053
 30
0.0
  0
LWPOLYLINE
  5
383
100
AcDbEntity
  8
Layer_1
 62
7
100
AcDbPolyline
 90
3
 70
0
 10
1143.109084
 20
2190.701646
 30
0.0
 10
1191.709148
 20
2190.701646
 30
0.0
 10
1191.709148
 20
2133.701558
 30
0.0
  0
LWPOLYLINE
  5
384
100
AcDbEntity
  8
Layer_1
 62
7
100
AcDbPolyline
 90
3
 70
0
 10
1242.109207
 20
2277.101690
 30
0.0
 10
1217.509171
 20
2319.101668
 30
0.0
 10
1266.709242
 20
2347.901871
 30
0.0
  0
LWPOLYLINE
  5
385
100
AcDbEntity
  8
Layer_1
 62
7
100
AcDbPolyline
 90
3
 70
0
 10
1191.709148
 20
1680.100972
 30
0.0
 10
1143.109084
 20
1680.100972
 30
0.0
 10
1143.109084
 20
1737.101032
 30
0.0
  0
LWPOLYLINE
  5
386
100
AcDbEntity
  8
Layer_1
 62
7
100
AcDbPolyline
 90
3
 70
0
 10
1610.509679
 20
2545.902173
 30
0.0
 10
1659.109742
 20
2574.702093
 30
0.0
 10
1683.709778
 20
2532.102022
 30
0.0
  0
LWPOLYLINE
  5
387
100
AcDbEntity
  8
Layer_1
 62
7
100
AcDbPolyline
 90
3
 70
0
 10
675.708461
 20
2574.702093
 30
0.0
 10
724.908533
 20
2545.902173
 30
0.0
 10
700.308497
 20
2503.901911
 30
0.0
  0
LWPOLYLINE
  5
388
100
AcDbEntity
  8
Layer_1
 62
7
100
AcDbPolyline
 90
3
 70
0
 10
1093.309005
 20
2277.101690
 30
0.0
 10
1044.108933
 20
2305.301800
 30
0.0
 10
1068.708969
 20
2347.901871
 30
0.0
  0
LWPOLYLINE
  5
389
100
AcDbEntity
  8
Layer_1
 62
7
100
AcDbPolyline
 90
3
 70
0
 10
1191.709148
 20
1623.700892
 30
0.0
 10
1191.709148
 20
1566.700805
 30
0.0
 10
1143.109084
 20
1566.700805
 30
0.0
  0
LWPOLYLINE
  5
38a
100
AcDbEntity
  8
Layer_1
 62
7
100
AcDbPolyline
 90
3
 70
0
 10
1462.909492
 20
2461.302124
 30
0.0
 10
1487.509528
 20
2418.702053
 30
0.0
 10
1438.309457
 20
2390.501942
 30
0.0
  0
LWPOLYLINE
  5
38b
100
AcDbEntity
  8
Layer_1
 62
7
100
AcDbPolyline
 90
3
 70
0
 10
1143.109084
 20
1793.501112
 30
0.0
 10
1143.109084
 20
1850.501199
 30
0.0
 10
1191.709148
 20
1850.501199
 30
0.0
  0
LWPOLYLINE
  5
38c
100
AcDbEntity
  8
Layer_1
 62
7
100
AcDbPolyline
 90
3
 70
0
 10
1191.709148
 20
1963.901339
 30
0.0
 10
1191.709148
 20
1906.901251
 30
0.0
 10
1143.109084
 20
1906.901251
 30
0.0
  0
LWPOLYLINE
  5
38d
100
AcDbEntity
  8
Layer_1
 62
7
100
AcDbPolyline
 90
3
 70
0
 10
945.708819
 20
2362.301831
 30
0.0
 10
970.308854
 20
2404.301810
 30
0.0
 10
1019.508926
 20
2376.101982
 30
0.0
  0
LWPOLYLINE
  5
38e
100
AcDbEntity
  8
Layer_1
 62
7
100
AcDbPolyline
 90
3
 70
0
 10
822.708668
 20
2489.501951
 30
0.0
 10
798.708612
 20
2447.501973
 30
0.0
 10
749.508569
 20
2475.702084
 30
0.0
  0
LWPOLYLINE
  5
38f
100
AcDbEntity
  8
Layer_1
 62
7
100
AcDbPolyline
 90
3
 70
0
 10
1143.109084
 20
2077.301478
 30
0.0
 10
1191.709148
 20
2077.301478
 30
0.0
 10
1191.709148
 20
2020.301419
 30
0.0
  0
SPLINE
  5
390
100
AcDbEntity
  8
Layer_1
 62
7
100
AcDbSpline
 70
8
 71
3
 72
8
 73
4
 74
0
 40
0
 40
0
 40
0
 40
0
 40
1
 40
1
 40
1
 40
1
 10
2301.110590
 20
2262.401825
 30
0.0
 10
2301.110590
 20
2888.859049
 30
0.0
 10
1793.535723
 20
3396.703122
 30
0.0
 10
1167.409102
 20
3396.703122
 30
0.0
  0
SPLINE
  5
391
100
AcDbEntity
  8
Layer_1
 62
7
100
AcDbSpline
 70
8
 71
3
 72
8
 73
4
 74
0
 40
0
 40
0
 40
0
 40
0
 40
1
 40
1
 40
1
 40
1
 10
1167.409102
 20
3396.703122
 30
0.0
 10
541.282481
 20
3396.703122
 30
0.0
 10
33.707529
 20
2888.859049
 30
0.0
 10
33.707529
 20
2262.401825
 30
0.0
  0
SPLINE
  5
392
100
AcDbEntity
  8
Layer_1
 62
7
100
AcDbSpline
 70
8
 71
3
 72
8
 73
4
 74
0
 40
0
 40
0
 40
0
 40
0
 40
1
 40
1
 40
1
 40
1
 10
33.707529
 20
2262.401825
 30
0.0
 10
33.707529
 20
1635.944515
 30
0.0
 10
541.282481
 20
1128.100244
 30
0.0
 10
1167.409102
 20
1128.100244
 30
0.0
  0
SPLINE
  5
393
100
AcDbEntity
  8
Layer_1
 62
7
100
AcDbSpline
 70
8
 71
3
 72
8
 73
4
 74
0
 40
0
 40
0
 40
0
 40
0
 40
1
 40
1
 40
1
 40
1
 10
1167.409102
 20
1128.100244
 30
0.0
 10
1793.535723
 20
1128.100244
 30
0.0
 10
2301.110590
 20
1635.944515
 30
0.0
 10
2301.110590
 20
2262.401825
 30
0.0
  0
LWPOLYLINE
  5
394
100
AcDbEntity
  8
Layer_1
 62
7
100
AcDbPolyline
 90
3
 70
0
 10
1364.509378
 20
2404.301810
 30
0.0
 10
1389.109385
 20
2362.301831
 30
0.0
 10
1339.909342
 20
2334.101721
 30
0.0
  0
LWPOLYLINE
  5
395
100
AcDbEntity
  8
Layer_1
 62
7
100
AcDbPolyline
 90
3
 70
0
 10
896.508747
 20
2390.501942
 30
0.0
 10
847.908683
 20
2418.702053
 30
0.0
 10
871.908711
 20
2461.302124
 30
0.0
  0
LWPOLYLINE
  5
396
100
AcDbEntity
  8
Layer_1
 62
7
100
AcDbPolyline
 90
3
 70
0
 10
1782.109921
 20
2589.102053
 30
0.0
 10
1732.909850
 20
2560.902226
 30
0.0
 10
1708.309814
 20
2602.902204
 30
0.0
  0
LWPOLYLINE
  5
397
100
AcDbEntity
  8
Layer_1
 62
7
100
AcDbPolyline
 90
3
 70
0
 10
1561.309607
 20
2517.702062
 30
0.0
 10
1585.309663
 20
2475.702084
 30
0.0
 10
1536.709600
 20
2447.501973
 30
0.0
  0
LWPOLYLINE
  5
398
100
AcDbEntity
  8
Layer_1
 62
7
100
AcDbPolyline
 90
3
 70
0
 10
553.308290
 20
2589.102053
 30
0.0
 10
577.308347
 20
2631.102315
 30
0.0
 10
626.508390
 20
2602.902204
 30
0.0
  0
LWPOLYLINE
  5
399
100
AcDbEntity
  8
Layer_1
 62
7
100
AcDbPolyline
 90
3
 70
0
 10
1191.709148
 20
2133.701558
 30
0.0
 10
1143.109084
 20
2133.701558
 30
0.0
 10
1143.109084
 20
2190.701646
 30
0.0
  0
LWPOLYLINE
  5
39a
100
AcDbEntity
  8
Layer_1
 62
7
100
AcDbPolyline
 90
3
 70
0
 10
1266.709242
 20
2347.901871
 30
0.0
 10
1290.709270
 20
2305.301800
 30
0.0
 10
1242.109207
 20
2277.101690
 30
0.0
  0
LWPOLYLINE
  5
39b
100
AcDbEntity
  8
Layer_1
 62
7
100
AcDbPolyline
 90
3
 70
0
 10
1143.109084
 20
1737.101032
 30
0.0
 10
1191.709148
 20
1737.101032
 30
0.0
 10
1191.709148
 20
1680.100972
 30
0.0
  0
LWPOLYLINE
  5
39c
100
AcDbEntity
  8
Layer_1
 62
7
100
AcDbPolyline
 90
3
 70
0
 10
1683.709778
 20
2532.102022
 30
0.0
 10
1634.509707
 20
2503.901911
 30
0.0
 10
1610.509679
 20
2545.902173
 30
0.0
  0
LWPOLYLINE
  5
39d
100
AcDbEntity
  8
Layer_1
 62
7
100
AcDbPolyline
 90
3
 70
0
 10
700.308497
 20
2503.901911
 30
0.0
 10
651.108426
 20
2532.102022
 30
0.0
 10
675.708461
 20
2574.702093
 30
0.0
  0
LWPOLYLINE
  5
39e
100
AcDbEntity
  8
Layer_1
 62
7
100
AcDbPolyline
 90
3
 70
0
 10
1068.708969
 20
2347.901871
 30
0.0
 10
1117.309033
 20
2319.101668
 30
0.0
 10
1093.309005
 20
2277.101690
 30
0.0
  0
LWPOLYLINE
  5
39f
100
AcDbEntity
  8
Layer_1
 62
7
100
AcDbPolyline
 90
3
 70
0
 10
1143.109084
 20
1566.700805
 30
0.0
 10
1143.109084
 20
1623.700892
 30
0.0
 10
1191.709148
 20
1623.700892
 30
0.0
  0
LWPOLYLINE
  5
3a0
100
AcDbEntity
  8
Layer_1
 62
7
100
AcDbPolyline
 90
3
 70
0
 10
1438.309457
 20
2390.501942
 30
0.0
 10
1413.709421
 20
2432.501920
 30
0.0
 10
1462.909492
 20
2461.302124
 30
0.0
  0
LWPOLYLINE
  5
3a1
100
AcDbEntity
  8
Layer_1
 62
7
100
AcDbPolyline
 90
3
 70
0
 10
1191.709148
 20
1850.501199
 30
0.0
 10
1191.709148
 20
1793.501112
 30
0.0
 10
1143.109084
 20
1793.501112
 30
0.0
  0
LWPOLYLINE
  5
3a2
100
AcDbEntity
  8
Layer_1
 62
7
100
AcDbPolyline
 90
3
 70
0
 10
1143.109084
 20
1906.901251
 30
0.0
 10
1143.109084
 20
1963.901339
 30
0.0
 10
1191.709148
 20
1963.901339
 30
0.0
  0
LWPOLYLINE
  5
3a3
100
AcDbEntity
  8
Layer_1
 62
7
100
AcDbPolyline
 90
3
 70
0
 10
1019.508926
 20
2376.101982
 30
0.0
 10
994.908890
 20
2334.101721
 30
0.0
 10
945.708819
 20
2362.301831
 30
0.0
  0
LWPOLYLINE
  5
3a4
100
AcDbEntity
  8
Layer_1
 62
7
100
AcDbPolyline
 90
3
 70
0
 10
749.508569
 20
2475.702084
 30
0.0
 10
774.108604
 20
2517.702062
 30
0.0
 10
822.708668
 20
2489.501951
 30
0.0
  0
LWPOLYLINE
  5
3a5
100
AcDbEntity
  8
Layer_1
 62
7
100
AcDbPolyline
 90
3
 70
0
 10
1191.709148
 20
2020.301419
 30
0.0
 10
1143.109084
 20
2020.301419
 30
0.0
 10
1143.109084
 20
2077.301478
 30
0.0
  0
LWPOLYLINE
  5
3a6
100
AcDbEntity
  8
Layer_1
 62
7
100
AcDbPolyline
 90
3
 70
0
 10
1339.909342
 20
2334.101721
 30
0.0
 10
1315.909314
 20
2376.101982
 30
0.0
 10
1364.509378
 20
2404.301810
 30
0.0
  0
SPLINE
  5
3a7
100
AcDbEntity
  8
Layer_1
 62
7
100
AcDbSpline
 70
8
 71
3
 72
8
 73
4
 74
0
 40
0
 40
0
 40
0
 40
0
 40
1
 40
1
 40
1
 40
1
 10
3860.512520
 20
840.999055
 30
0.0
 10
3860.512520
 20
833.211814
 30
0.0
 10
3866.825328
 20
826.899005
 30
0.0
 10
3874.612570
 20
826.899005
 30
0.0
  0
SPLINE
  5
3a8
100
AcDbEntity
  8
Layer_1
 62
7
100
AcDbSpline
 70
8
 71
3
 72
8
 73
4
 74
0
 40
0
 40
0
 40
0
 40
0
 40
1
 40
1
 40
1
 40
1
 10
3874.612570
 20
826.899005
 30
0.0
 10
3882.399811
 20
826.899005
 30
0.0
 10
3888.712619
 20
833.211814
 30
0.0
 10
3888.712619
 20
840.999055
 30
0.0
  0
SPLINE
  5
3a9
100
AcDbEntity
  8
Layer_1
 62
7
100
AcDbSpline
 70
8
 71
3
 72
8
 73
4
 74
0
 40
0
 40
0
 40
0
 40
0
 40
1
 40
1
 40
1
 40
1
 10
3888.712619
 20
840.999055
 30
0.0
 10
3888.712619
 20
848.786297
 30
0.0
 10
3882.399811
 20
855.099105
 30
0.0
 10
3874.612570
 20
855.099105
 30
0.0
  0
SPLINE
  5
3aa
100
AcDbEntity
  8
Layer_1
 62
7
100
AcDbSpline
 70
8
 71
3
 72
8
 73
4
 74
0
 40
0
 40
0
 40
0
 40
0
 40
1
 40
1
 40
1
 40
1
 10
3874.612570
 20
855.099105
 30
0.0
 10
3866.825328
 20
855.099105
 30
0.0
 10
3860.512520
 20
848.786297
 30
0.0
 10
3860.512520
 20
840.999055
 30
0.0
  0
SPLINE
  5
3ab
100
AcDbEntity
  8
Layer_1
 62
7
100
AcDbSpline
 70
8
 71
3
 72
8
 73
4
 74
0
 40
0
 40
0
 40
0
 40
0
 40
1
 40
1
 40
1
 40
1
 10
4298.512160
 20
474.999125
 30
0.0
 10
4298.512160
 20
459.258951
 30
0.0
 10
4311.272087
 20
446.499024
 30
0.0
 10
4327.012261
 20
446.499024
 30
0.0
  0
SPLINE
  5
3ac
100
AcDbEntity
  8
Layer_1
 62
7
100
AcDbSpline
 70
8
 71
3
 72
8
 73
4
 74
0
 40
0
 40
0
 40
0
 40
0
 40
1
 40
1
 40
1
 40
1
 10
4327.012261
 20
446.499024
 30
0.0
 10
4342.752434
 20
446.499024
 30
0.0
 10
4355.512361
 20
459.258951
 30
0.0
 10
4355.512361
 20
474.999125
 30
0.0
  0
SPLINE
  5
3ad
100
AcDbEntity
  8
Layer_1
 62
7
100
AcDbSpline
 70
8
 71
3
 72
8
 73
4
 74
0
 40
0
 40
0
 40
0
 40
0
 40
1
 40
1
 40
1
 40
1
 10
4355.512361
 20
474.999125
 30
0.0
 10
4355.512361
 20
490.739298
 30
0.0
 10
4342.752434
 20
503.499225
 30
0.0
 10
4327.012261
 20
503.499225
 30
0.0
  0
SPLINE
  5
3ae
100
AcDbEntity
  8
Layer_1
 62
7
100
AcDbSpline
 70
8
 71
3
 72
8
 73
4
 74
0
 40
0
 40
0
 40
0
 40
0
 40
1
 40
1
 40
1
 40
1
 10
4327.012261
 20
503.499225
 30
0.0
 10
4311.272087
 20
503.499225
 30
0.0
 10
4298.512160
 20
490.739298
 30
0.0
 10
4298.512160
 20
474.999125
 30
0.0
  0
LWPOLYLINE
  5
3af
100
AcDbEntity
  8
Layer_1
 62
7
100
AcDbPolyline
 90
358
 70
1
 10
4031.512862
 20
1715.501007
 30
0.0
 10
3975.112782
 20
1715.501007
 30
0.0
 10
3975.112782
 20
1691.500979
 30
0.0
 10
3918.112695
 20
1691.500979
 30
0.0
 10
3918.112695
 20
1715.501007
 30
0.0
 10
3861.712615
 20
1715.501007
 30
0.0
 10
3861.712615
 20
1691.500979
 30
0.0
 10
3804.712555
 20
1691.500979
 30
0.0
 10
3804.712555
 20
750.099761
 30
0.0
 10
3803.512540
 20
736.299723
 30
0.0
 10
3802.912560
 20
721.899707
 30
0.0
 10
3802.912560
 20
708.099698
 30
0.0
 10
3802.312553
 20
694.299689
 30
0.0
 10
3802.912560
 20
681.099659
 30
0.0
 10
3803.512540
 20
667.299650
 30
0.0
 10
3804.712555
 20
654.099620
 30
0.0
 10
3805.912543
 20
640.899619
 30
0.0
 10
3807.712566
 20
627.699590
 30
0.0
 10
3809.512561
 20
614.499560
 30
0.0
 10
3811.912564
 20
601.899567
 30
0.0
 10
3814.912574
 20
589.299545
 30
0.0
 10
3818.512564
 20
576.699523
 30
0.0
 10
3822.112583
 20
564.699509
 30
0.0
 10
3826.312581
 20
553.299503
 30
0.0
 10
3831.112586
 20
541.299489
 30
0.0
 10
3835.912592
 20
529.899454
 30
0.0
 10
3841.912613
 20
519.099456
 30
0.0
 10
3847.912606
 20
508.899437
 30
0.0
 10
3850.912616
 20
503.499424
 30
0.0
 10
3854.512606
 20
498.699418
 30
0.0
 10
3857.512617
 20
493.299405
 30
0.0
 10
3861.112635
 20
488.499399
 30
0.0
 10
3865.312633
 20
483.699393
 30
0.0
 10
3868.912652
 20
478.899388
 30
0.0
 10
3873.112649
 20
474.699390
 30
0.0
 10
3876.712639
 20
469.899384
 30
0.0
 10
3881.512645
 20
465.699387
 30
0.0
 10
3885.712671
 20
461.499360
 30
0.0
 10
3889.912669
 20
457.299363
 30
0.0
 10
3894.712675
 20
453.099365
 30
0.0
 10
3899.512680
 20
449.499346
 30
0.0
 10
3904.312686
 20
445.299349
 30
0.0
 10
3909.112691
 20
441.699359
 30
0.0
 10
3914.512705
 20
438.099340
 30
0.0
 10
3919.312710
 20
434.499350
 30
0.0
 10
3924.712724
 20
431.499340
 30
0.0
 10
3930.112709
 20
427.899321
 30
0.0
 10
3935.512722
 20
424.899311
 30
0.0
 10
3941.512743
 20
421.299321
 30
0.0
 10
3947.512736
 20
418.299310
 30
0.0
 10
3958.912742
 20
412.899297
 30
0.0
 10
3971.512764
 20
407.499312
 30
0.0
 10
3973.312787
 20
406.899304
 30
0.0
 10
3975.712790
 20
405.699288
 30
0.0
 10
3978.712772
 20
405.099309
 30
0.0
 10
3981.712783
 20
403.899293
 30
0.0
 10
3985.312801
 20
402.099298
 30
0.0
 10
3989.512799
 20
400.899283
 30
0.0
 10
3993.712797
 20
399.099288
 30
0.0
 10
3998.512803
 20
397.299293
 30
0.0
 10
4003.312808
 20
395.499298
 30
0.0
 10
4009.312829
 20
393.099295
 30
0.0
 10
4015.312822
 20
391.299272
 30
0.0
 10
4021.912851
 20
388.899269
 30
0.0
 10
4028.512852
 20
387.099274
 30
0.0
 10
4036.312868
 20
384.699271
 30
0.0
 10
4044.112856
 20
382.299268
 30
0.0
 10
4052.512880
 20
380.499273
 30
0.0
 10
4061.512883
 20
378.099270
 30
0.0
 10
4070.512915
 20
376.299247
 30
0.0
 10
4079.512918
 20
373.899244
 30
0.0
 10
4089.112929
 20
372.699257
 30
0.0
 10
4099.312948
 20
370.899262
 30
0.0
 10
4108.912960
 20
369.699246
 30
0.0
 10
4118.512971
 20
368.499259
 30
0.0
 10
4128.712990
 20
367.299244
 30
0.0
 10
4138.313001
 20
366.699236
 30
0.0
 10
4147.913012
 20
365.499249
 30
0.0
 10
4156.913016
 20
365.499249
 30
0.0
 10
4165.913019
 20
364.899241
 30
0.0
 10
4174.313043
 20
364.899241
 30
0.0
 10
4182.113059
 20
364.899241
 30
0.0
 10
4189.913047
 20
364.899241
 30
0.0
 10
4197.113055
 20
364.899241
 30
0.0
 10
4203.713084
 20
365.499249
 30
0.0
 10
4209.713077
 20
365.499249
 30
0.0
 10
4215.113091
 20
366.099256
 30
0.0
 10
4220.513104
 20
366.099256
 30
0.0
 10
4224.713102
 20
366.699236
 30
0.0
 10
4228.913100
 20
366.699236
 30
0.0
 10
4233.113126
 20
367.299244
 30
0.0
 10
4236.713116
 20
367.299244
 30
0.0
 10
4243.913124
 20
367.899251
 30
0.0
 10
4248.113122
 20
368.499259
 30
0.0
 10
4252.313148
 20
368.499259
 30
0.0
 10
4256.513146
 20
369.099239
 30
0.0
 10
4261.313151
 20
369.099239
 30
0.0
 10
4267.313173
 20
369.699246
 30
0.0
 10
4273.313165
 20
370.299254
 30
0.0
 10
4279.313187
 20
370.899262
 30
0.0
 10
4286.513195
 20
372.099249
 30
0.0
 10
4294.313183
 20
373.299265
 30
0.0
 10
4302.113199
 20
374.499252
 30
0.0
 10
4310.513223
 20
376.299247
 30
0.0
 10
4318.913219
 20
378.099270
 30
0.0
 10
4327.913250
 20
380.499273
 30
0.0
 10
4336.313246
 20
382.899276
 30
0.0
 10
4345.313249
 20
385.899286
 30
0.0
 10
4354.313281
 20
389.499277
 30
0.0
 10
4363.313285
 20
393.099295
 30
0.0
 10
4371.713309
 20
397.299293
 30
0.0
 10
4380.113304
 20
402.099298
 30
0.0
 10
4383.713323
 20
404.499301
 30
0.0
 10
4387.313313
 20
406.899304
 30
0.0
 10
4390.913331
 20
409.899314
 30
0.0
 10
4394.513321
 20
412.899297
 30
0.0
 10
4398.113339
 20
415.899307
 30
0.0
 10
4401.113322
 20
418.899318
 30
0.0
 10
4404.113332
 20
421.899328
 30
0.0
 10
4407.113343
 20
424.899311
 30
0.0
 10
4410.113353
 20
427.899321
 30
0.0
 10
4412.513356
 20
431.499340
 30
0.0
 10
4414.913359
 20
435.099330
 30
0.0
 10
4416.713354
 20
438.699348
 30
0.0
 10
4419.113357
 20
442.299338
 30
0.0
 10
4420.913352
 20
445.899356
 30
0.0
 10
4422.113367
 20
449.499346
 30
0.0
 10
4423.913362
 20
453.099365
 30
0.0
 10
4424.513370
 20
456.699355
 30
0.0
 10
4425.713357
 20
460.299373
 30
0.0
 10
4426.313365
 20
464.499371
 30
0.0
 10
4426.913373
 20
468.099389
 30
0.0
 10
4427.513381
 20
472.299387
 30
0.0
 10
4427.513381
 20
475.899377
 30
0.0
 10
4427.513381
 20
479.499396
 30
0.0
 10
4427.513381
 20
483.699393
 30
0.0
 10
4426.913373
 20
487.299412
 30
0.0
 10
4426.313365
 20
490.899402
 30
0.0
 10
4425.713357
 20
495.099428
 30
0.0
 10
4424.513370
 20
498.699418
 30
0.0
 10
4423.313355
 20
502.299436
 30
0.0
 10
4422.113367
 20
505.899426
 30
0.0
 10
4420.913352
 20
508.899437
 30
0.0
 10
4419.113357
 20
512.499427
 30
0.0
 10
4417.313362
 20
516.099445
 30
0.0
 10
4415.513367
 20
519.099456
 30
0.0
 10
4413.713343
 20
522.099438
 30
0.0
 10
4411.313341
 20
525.099449
 30
0.0
 10
4409.513346
 20
528.099459
 30
0.0
 10
4407.113343
 20
530.499462
 30
0.0
 10
4404.713340
 20
533.499473
 30
0.0
 10
4401.713329
 20
535.899476
 30
0.0
 10
4399.313327
 20
538.299478
 30
0.0
 10
4396.313316
 20
540.699481
 30
0.0
 10
4393.313334
 20
542.499476
 30
0.0
 10
4390.913331
 20
544.299471
 30
0.0
 10
4387.313313
 20
546.099495
 30
0.0
 10
4384.313302
 20
547.899490
 30
0.0
 10
4381.313320
 20
549.099477
 30
0.0
 10
4378.313309
 20
550.899500
 30
0.0
 10
4374.713291
 20
551.499480
 30
0.0
 10
4371.713309
 20
552.699495
 30
0.0
 10
4368.113290
 20
553.899482
 30
0.0
 10
4364.513300
 20
554.499490
 30
0.0
 10
4357.913271
 20
555.099498
 30
0.0
 10
4350.713263
 20
555.699506
 30
0.0
 10
4343.513254
 20
555.699506
 30
0.0
 10
4336.313246
 20
555.099498
 30
0.0
 10
4329.113238
 20
554.499490
 30
0.0
 10
4321.913229
 20
553.299503
 30
0.0
 10
4314.713221
 20
551.499480
 30
0.0
 10
4299.713196
 20
547.899490
 30
0.0
 10
4285.313179
 20
544.299471
 30
0.0
 10
4277.513163
 20
542.499476
 30
0.0
 10
4270.313155
 20
541.299489
 30
0.0
 10
4263.113147
 20
539.499466
 30
0.0
 10
4255.913138
 20
538.299478
 30
0.0
 10
4248.713130
 20
537.699471
 30
0.0
 10
4240.913114
 20
537.099463
 30
0.0
 10
4233.713105
 20
537.099463
 30
0.0
 10
4226.513097
 20
537.699471
 30
0.0
 10
4219.913096
 20
538.899486
 30
0.0
 10
4212.713088
 20
540.699481
 30
0.0
 10
4205.513079
 20
542.499476
 30
0.0
 10
4198.913079
 20
544.899479
 30
0.0
 10
4192.313050
 20
547.899490
 30
0.0
 10
4185.713049
 20
551.499480
 30
0.0
 10
4179.113049
 20
555.699506
 30
0.0
 10
4172.513048
 20
559.899504
 30
0.0
 10
4166.513027
 20
564.699509
 30
0.0
 10
4160.513006
 20
569.499515
 30
0.0
 10
4155.113021
 20
574.899528
 30
0.0
 10
4149.713007
 20
579.699534
 30
0.0
 10
4144.312994
 20
585.099547
 30
0.0
 10
4139.512988
 20
590.499532
 30
0.0
 10
4135.312990
 20
595.899545
 30
0.0
 10
4131.112993
 20
600.699551
 30
0.0
 10
4127.512974
 20
605.499557
 30
0.0
 10
4123.912984
 20
610.299562
 30
0.0
 10
4120.912974
 20
614.499560
 30
0.0
 10
4119.712958
 20
616.299583
 30
0.0
 10
4117.912963
 20
618.099578
 30
0.0
 10
4117.312955
 20
619.899573
 30
0.0
 10
4116.112968
 20
621.699568
 30
0.0
 10
4114.912952
 20
623.499592
 30
0.0
 10
4114.312973
 20
624.699579
 30
0.0
 10
4109.512939
 20
637.899609
 30
0.0
 10
4105.312941
 20
651.699618
 30
0.0
 10
4101.112943
 20
665.499627
 30
0.0
 10
4097.512925
 20
679.899643
 30
0.0
 10
4093.912935
 20
694.299689
 30
0.0
 10
4090.912925
 20
709.299685
 30
0.0
 10
4088.512922
 20
724.299709
 30
0.0
 10
4086.112919
 20
739.299734
 30
0.0
 10
4084.312924
 20
754.299758
 30
0.0
 10
4082.512929
 20
769.899762
 30
0.0
 10
4080.712906
 20
785.499795
 30
0.0
 10
4079.512918
 20
801.699807
 30
0.0
 10
4078.312903
 20
817.299839
 30
0.0
 10
4077.712923
 20
833.499851
 30
0.0
 10
4077.112916
 20
849.699891
 30
0.0
 10
4076.512908
 20
865.299895
 30
0.0
 10
4075.912900
 20
897.699947
 30
0.0
 10
4075.312920
 20
930.099970
 30
0.0
 10
4075.312920
 20
961.900015
 30
0.0
 10
4075.312920
 20
993.100079
 30
0.0
 10
4075.312920
 20
1008.700083
 30
0.0
 10
4075.312920
 20
1024.300116
 30
0.0
 10
4075.312920
 20
1039.300140
 30
0.0
 10
4074.712913
 20
1054.300137
 30
0.0
 10
4074.712913
 20
1068.700153
 30
0.0
 10
4074.712913
 20
1083.100198
 30
0.0
 10
4074.112905
 20
1097.500215
 30
0.0
 10
4073.512897
 20
1111.900232
 30
0.0
 10
4073.512897
 20
1117.900225
 30
0.0
 10
4073.512897
 20
1123.900246
 30
0.0
 10
4072.312910
 20
1141.300273
 30
0.0
 10
4071.712902
 20
1158.700272
 30
0.0
 10
4071.112894
 20
1174.900313
 30
0.0
 10
4070.512915
 20
1191.100324
 30
0.0
 10
4069.312899
 20
1206.700357
 30
0.0
 10
4068.712892
 20
1222.300361
 30
0.0
 10
4068.112912
 20
1237.300385
 30
0.0
 10
4068.112912
 20
1251.700402
 30
0.0
 10
4068.112912
 20
1266.100419
 30
0.0
 10
4068.112912
 20
1279.900428
 30
0.0
 10
4068.712892
 20
1293.700465
 30
0.0
 10
4069.312899
 20
1307.500474
 30
0.0
 10
4070.512915
 20
1320.700504
 30
0.0
 10
4072.312910
 20
1333.900505
 30
0.0
 10
4074.712913
 20
1347.100535
 30
0.0
 10
4077.712923
 20
1359.700556
 30
0.0
 10
4080.712906
 20
1372.300550
 30
0.0
 10
4084.312924
 20
1384.300592
 30
0.0
 10
4088.512922
 20
1396.300606
 30
0.0
 10
4093.312927
 20
1407.700612
 30
0.0
 10
4098.112933
 20
1419.100619
 30
0.0
 10
4103.512946
 20
1429.900645
 30
0.0
 10
4108.912960
 20
1440.700644
 30
0.0
 10
4114.912952
 20
1450.300655
 30
0.0
 10
4117.912963
 20
1455.100660
 30
0.0
 10
4120.912974
 20
1459.900666
 30
0.0
 10
4123.912984
 20
1464.100692
 30
0.0
 10
4126.912966
 20
1468.300690
 30
0.0
 10
4129.912977
 20
1472.500688
 30
0.0
 10
4132.912988
 20
1476.100706
 30
0.0
 10
4135.912998
 20
1479.700696
 30
0.0
 10
4138.912980
 20
1483.300715
 30
0.0
 10
4141.912991
 20
1486.900705
 30
0.0
 10
4144.913002
 20
1489.900715
 30
0.0
 10
4147.913012
 20
1492.900726
 30
0.0
 10
4150.912994
 20
1495.300729
 30
0.0
 10
4153.913005
 20
1497.700731
 30
0.0
 10
4156.313008
 20
1500.100734
 30
0.0
 10
4159.313018
 20
1502.500737
 30
0.0
 10
4161.713021
 20
1504.300732
 30
0.0
 10
4164.713032
 20
1506.100727
 30
0.0
 10
4167.113035
 20
1507.900750
 30
0.0
 10
4172.513048
 20
1510.900733
 30
0.0
 10
4177.313054
 20
1513.300735
 30
0.0
 10
4182.713039
 20
1515.700738
 30
0.0
 10
4187.513044
 20
1517.500762
 30
0.0
 10
4192.913058
 20
1519.300757
 30
0.0
 10
4198.313071
 20
1521.100752
 30
0.0
 10
4204.313064
 20
1522.900747
 30
0.0
 10
4212.113080
 20
1524.700770
 30
0.0
 10
4219.913096
 20
1526.500765
 30
0.0
 10
4228.313120
 20
1528.300760
 30
0.0
 10
4237.313124
 20
1529.500776
 30
0.0
 10
4245.713119
 20
1530.700763
 30
0.0
 10
4254.713151
 20
1531.300771
 30
0.0
 10
4263.713154
 20
1531.900778
 30
0.0
 10
4273.313165
 20
1532.500758
 30
0.0
 10
4291.913180
 20
1533.100766
 30
0.0
 10
4311.113202
 20
1533.700773
 30
0.0
 10
4329.713245
 20
1533.700773
 30
0.0
 10
4348.313260
 20
1534.300781
 30
0.0
 10
4357.313263
 20
1534.300781
 30
0.0
 10
4365.713287
 20
1534.900789
 30
0.0
 10
4374.713291
 20
1534.900789
 30
0.0
 10
4383.113315
 20
1535.500768
 30
0.0
 10
4390.913331
 20
1536.700784
 30
0.0
 10
4398.713319
 20
1537.300792
 30
0.0
 10
4406.513335
 20
1538.500779
 30
0.0
 10
4413.713343
 20
1540.300774
 30
0.0
 10
4420.313372
 20
1541.500790
 30
0.0
 10
4426.913373
 20
1543.900792
 30
0.0
 10
4433.513374
 20
1545.700787
 30
0.0
 10
4438.913387
 20
1548.100790
 30
0.0
 10
4444.313400
 20
1551.100801
 30
0.0
 10
4449.713385
 20
1554.100811
 30
0.0
 10
4454.513391
 20
1557.100794
 30
0.0
 10
4458.713417
 20
1560.700812
 30
0.0
 10
4462.313407
 20
1564.300802
 30
0.0
 10
4465.913425
 20
1567.900820
 30
0.0
 10
4469.513415
 20
1572.100818
 30
0.0
 10
4471.913418
 20
1576.300816
 30
0.0
 10
4474.913429
 20
1581.100822
 30
0.0
 10
4476.713424
 20
1585.300848
 30
0.0
 10
4479.113427
 20
1590.100853
 30
0.0
 10
4480.313442
 20
1595.500867
 30
0.0
 10
4482.113437
 20
1600.300872
 30
0.0
 10
4483.313453
 20
1605.100878
 30
0.0
 10
4484.513440
 20
1610.500863
 30
0.0
 10
4485.113448
 20
1615.300868
 30
0.0
 10
4486.313435
 20
1625.500887
 30
0.0
 10
4486.913443
 20
1635.100899
 30
0.0
 10
4487.513451
 20
1644.700910
 30
0.0
 10
4487.513451
 20
1648.900936
 30
0.0
 10
4487.513451
 20
1653.100934
 30
0.0
 10
4486.913443
 20
1657.300932
 30
0.0
 10
4486.913443
 20
1661.500929
 30
0.0
 10
4486.913443
 20
1665.700956
 30
0.0
 10
4486.913443
 20
1669.300946
 30
0.0
 10
4486.913443
 20
1672.300956
 30
0.0
 10
4486.313435
 20
1675.900946
 30
0.0
 10
4486.313435
 20
1678.900957
 30
0.0
 10
4486.313435
 20
1681.900967
 30
0.0
 10
4485.713456
 20
1684.300970
 30
0.0
 10
4485.713456
 20
1686.700973
 30
0.0
 10
4485.713456
 20
1689.100976
 30
0.0
 10
4485.113448
 20
1691.500979
 30
0.0
 10
4485.113448
 20
1715.501007
 30
0.0
 10
4428.713368
 20
1715.501007
 30
0.0
 10
4428.713368
 20
1691.500979
 30
0.0
 10
4371.713309
 20
1691.500979
 30
0.0
 10
4371.713309
 20
1715.501007
 30
0.0
 10
4315.313229
 20
1715.501007
 30
0.0
 10
4315.313229
 20
1691.500979
 30
0.0
 10
4258.313141
 20
1691.500979
 30
0.0
 10
4258.313141
 20
1715.501007
 30
0.0
 10
4201.913061
 20
1715.501007
 30
0.0
 10
4201.913061
 20
1691.500979
 30
0.0
 10
4144.913002
 20
1691.500979
 30
0.0
 10
4144.913002
 20
1715.501007
 30
0.0
 10
4088.512922
 20
1715.501007
 30
0.0
 10
4088.512922
 20
1691.500979
 30
0.0
 10
4031.512862
 20
1691.500979
 30
0.0
  0
SPLINE
  5
3b0
100
AcDbEntity
  8
Layer_1
 62
7
100
AcDbSpline
 70
8
 71
3
 72
8
 73
4
 74
0
 40
0
 40
0
 40
0
 40
0
 40
1
 40
1
 40
1
 40
1
 10
291.700587
 20
251.799743
 30
0.0
 10
291.700587
 20
236.059570
 30
0.0
 10
304.460514
 20
223.299643
 30
0.0
 10
320.200687
 20
223.299643
 30
0.0
  0
SPLINE
  5
3b1
100
AcDbEntity
  8
Layer_1
 62
7
100
AcDbSpline
 70
8
 71
3
 72
8
 73
4
 74
0
 40
0
 40
0
 40
0
 40
0
 40
1
 40
1
 40
1
 40
1
 10
320.200687
 20
223.299643
 30
0.0
 10
335.940861
 20
223.299643
 30
0.0
 10
348.700788
 20
236.059570
 30
0.0
 10
348.700788
 20
251.799743
 30
0.0
  0
SPLINE
  5
3b2
100
AcDbEntity
  8
Layer_1
 62
7
100
AcDbSpline
 70
8
 71
3
 72
8
 73
4
 74
0
 40
0
 40
0
 40
0
 40
0
 40
1
 40
1
 40
1
 40
1
 10
348.700788
 20
251.799743
 30
0.0
 10
348.700788
 20
267.539917
 30
0.0
 10
335.940861
 20
280.299844
 30
0.0
 10
320.200687
 20
280.299844
 30
0.0
  0
SPLINE
  5
3b3
100
AcDbEntity
  8
Layer_1
 62
7
100
AcDbSpline
 70
8
 71
3
 72
8
 73
4
 74
0
 40
0
 40
0
 40
0
 40
0
 40
1
 40
1
 40
1
 40
1
 10
320.200687
 20
280.299844
 30
0.0
 10
304.460514
 20
280.299844
 30
0.0
 10
291.700587
 20
267.539917
 30
0.0
 10
291.700587
 20
251.799743
 30
0.0
  0
SPLINE
  5
3b4
100
AcDbEntity
  8
Layer_1
 62
7
100
AcDbSpline
 70
8
 71
3
 72
8
 73
4
 74
0
 40
0
 40
0
 40
0
 40
0
 40
1
 40
1
 40
1
 40
1
 10
1427.508778
 20
640.598666
 30
0.0
 10
1427.508778
 20
624.858492
 30
0.0
 10
1440.268705
 20
612.098565
 30
0.0
 10
1456.008878
 20
612.098565
 30
0.0
  0
SPLINE
  5
3b5
100
AcDbEntity
  8
Layer_1
 62
7
100
AcDbSpline
 70
8
 71
3
 72
8
 73
4
 74
0
 40
0
 40
0
 40
0
 40
0
 40
1
 40
1
 40
1
 40
1
 10
1456.008878
 20
612.098565
 30
0.0
 10
1471.749052
 20
612.098565
 30
0.0
 10
1484.508979
 20
624.858492
 30
0.0
 10
1484.508979
 20
640.598666
 30
0.0
  0
SPLINE
  5
3b6
100
AcDbEntity
  8
Layer_1
 62
7
100
AcDbSpline
 70
8
 71
3
 72
8
 73
4
 74
0
 40
0
 40
0
 40
0
 40
0
 40
1
 40
1
 40
1
 40
1
 10
1484.508979
 20
640.598666
 30
0.0
 10
1484.508979
 20
656.338839
 30
0.0
 10
1471.749052
 20
669.098766
 30
0.0
 10
1456.008878
 20
669.098766
 30
0.0
  0
SPLINE
  5
3b7
100
AcDbEntity
  8
Layer_1
 62
7
100
AcDbSpline
 70
8
 71
3
 72
8
 73
4
 74
0
 40
0
 40
0
 40
0
 40
0
 40
1
 40
1
 40
1
 40
1
 10
1456.008878
 20
669.098766
 30
0.0
 10
1440.268705
 20
669.098766
 30
0.0
 10
1427.508778
 20
656.338839
 30
0.0
 10
1427.508778
 20
640.598666
 30
0.0
  0
LWPOLYLINE
  5
3b8
100
AcDbEntity
  8
Layer_1
 62
7
100
AcDbPolyline
 90
339
 70
1
 10
154.307761
 20
523.299454
 30
0.0
 10
178.307789
 20
523.299454
 30
0.0
 10
178.307789
 20
466.899374
 30
0.0
 10
154.307761
 20
466.899374
 30
0.0
 10
154.307761
 20
409.899314
 30
0.0
 10
178.307789
 20
409.899314
 30
0.0
 10
178.307789
 20
353.499235
 30
0.0
 10
154.307761
 20
353.499235
 30
0.0
 10
154.307761
 20
296.499147
 30
0.0
 10
178.307789
 20
296.499147
 30
0.0
 10
178.307789
 20
240.099095
 30
0.0
 10
154.307761
 20
240.099095
 30
0.0
 10
154.307761
 20
183.099008
 30
0.0
 10
178.307789
 20
183.099008
 30
0.0
 10
178.307789
 20
126.698928
 30
0.0
 10
547.308297
 20
123.698917
 30
0.0
 10
575.508323
 20
120.098927
 30
0.0
 10
603.708377
 20
117.098916
 30
0.0
 10
631.908403
 20
114.098906
 30
0.0
 10
658.908442
 20
111.098924
 30
0.0
 10
685.908480
 20
108.698921
 30
0.0
 10
712.908519
 20
106.898897
 30
0.0
 10
738.708542
 20
104.498895
 30
0.0
 10
764.508593
 20
103.298907
 30
0.0
 10
789.708608
 20
102.098892
 30
0.0
 10
814.308644
 20
100.898905
 30
0.0
 10
838.908680
 20
100.298897
 30
0.0
 10
862.908708
 20
99.698889
 30
0.0
 10
886.908736
 20
99.698889
 30
0.0
 10
909.708777
 20
99.698889
 30
0.0
 10
932.508789
 20
100.298897
 30
0.0
 10
954.708822
 20
100.898905
 30
0.0
 10
976.908855
 20
102.098892
 30
0.0
 10
998.508880
 20
103.298907
 30
0.0
 10
1019.508926
 20
105.098902
 30
0.0
 10
1039.908935
 20
106.898897
 30
0.0
 10
1060.308973
 20
108.698921
 30
0.0
 10
1080.109004
 20
111.098924
 30
0.0
 10
1099.309026
 20
114.098906
 30
0.0
 10
1118.509048
 20
117.098916
 30
0.0
 10
1137.109063
 20
120.098927
 30
0.0
 10
1155.109098
 20
123.698917
 30
0.0
 10
1173.109105
 20
127.298935
 30
0.0
 10
1190.509132
 20
131.498933
 30
0.0
 10
1207.309152
 20
135.698959
 30
0.0
 10
1223.509192
 20
140.498965
 30
0.0
 10
1239.709204
 20
145.298971
 30
0.0
 10
1255.309208
 20
150.698956
 30
0.0
 10
1270.309232
 20
156.098969
 30
0.0
 10
1285.309257
 20
161.498982
 30
0.0
 10
1299.709274
 20
167.498975
 30
0.0
 10
1313.509311
 20
173.498996
 30
0.0
 10
1327.309320
 20
180.098997
 30
0.0
 10
1340.509321
 20
186.699026
 30
0.0
 10
1353.109343
 20
193.899034
 30
0.0
 10
1365.709365
 20
201.099043
 30
0.0
 10
1377.709379
 20
208.299051
 30
0.0
 10
1389.109385
 20
215.499059
 30
0.0
 10
1399.909412
 20
223.299047
 30
0.0
 10
1410.709410
 20
231.699071
 30
0.0
 10
1421.509437
 20
240.099095
 30
0.0
 10
1431.109448
 20
248.499091
 30
0.0
 10
1440.709459
 20
256.899115
 30
0.0
 10
1450.309471
 20
265.899118
 30
0.0
 10
1458.709495
 20
274.899122
 30
0.0
 10
1467.109490
 20
283.899153
 30
0.0
 10
1475.509514
 20
293.499165
 30
0.0
 10
1483.309530
 20
303.099176
 30
0.0
 10
1490.509539
 20
312.699187
 30
0.0
 10
1497.109539
 20
322.299198
 30
0.0
 10
1503.709540
 20
332.499217
 30
0.0
 10
1510.309541
 20
342.699208
 30
0.0
 10
1515.709554
 20
352.899227
 30
0.0
 10
1521.709575
 20
363.099246
 30
0.0
 10
1526.509581
 20
373.299265
 30
0.0
 10
1531.309586
 20
384.099263
 30
0.0
 10
1536.109592
 20
394.299282
 30
0.0
 10
1540.309590
 20
405.099309
 30
0.0
 10
1543.909608
 20
415.899307
 30
0.0
 10
1547.509598
 20
426.699334
 30
0.0
 10
1550.509609
 20
437.499332
 30
0.0
 10
1553.509619
 20
448.299359
 30
0.0
 10
1556.509601
 20
459.099358
 30
0.0
 10
1558.909604
 20
469.899384
 30
0.0
 10
1560.709628
 20
480.699383
 30
0.0
 10
1562.509623
 20
491.499410
 30
0.0
 10
1563.709638
 20
502.299436
 30
0.0
 10
1564.909625
 20
512.499427
 30
0.0
 10
1566.109641
 20
523.299454
 30
0.0
 10
1566.709620
 20
534.099481
 30
0.0
 10
1567.309628
 20
544.299471
 30
0.0
 10
1567.309628
 20
554.499490
 30
0.0
 10
1567.309628
 20
564.699509
 30
0.0
 10
1567.309628
 20
574.899528
 30
0.0
 10
1566.709620
 20
584.499539
 30
0.0
 10
1566.109641
 20
594.099550
 30
0.0
 10
1565.509633
 20
603.699562
 30
0.0
 10
1564.309618
 20
612.699565
 30
0.0
 10
1563.109630
 20
622.299576
 30
0.0
 10
1561.309607
 20
630.699600
 30
0.0
 10
1559.509612
 20
639.699604
 30
0.0
 10
1557.709617
 20
648.099628
 30
0.0
 10
1555.909622
 20
656.499623
 30
0.0
 10
1553.509619
 20
664.299639
 30
0.0
 10
1551.109616
 20
672.099656
 30
0.0
 10
1548.709614
 20
679.299664
 30
0.0
 10
1545.709603
 20
686.499672
 30
0.0
 10
1543.309600
 20
693.099673
 30
0.0
 10
1540.309590
 20
699.699674
 30
0.0
 10
1536.709600
 20
705.699695
 30
0.0
 10
1533.709589
 20
711.699688
 30
0.0
 10
1530.109571
 20
717.099701
 30
0.0
 10
1526.509581
 20
722.499714
 30
0.0
 10
1522.909562
 20
727.299720
 30
0.0
 10
1518.709565
 20
732.099726
 30
0.0
 10
1514.509567
 20
736.299723
 30
0.0
 10
1510.309541
 20
739.899742
 30
0.0
 10
1506.109543
 20
743.499732
 30
0.0
 10
1501.309537
 20
747.099750
 30
0.0
 10
1497.109539
 20
749.499753
 30
0.0
 10
1492.309534
 20
752.499763
 30
0.0
 10
1486.909520
 20
754.299758
 30
0.0
 10
1482.109515
 20
756.099753
 30
0.0
 10
1477.309509
 20
757.899748
 30
0.0
 10
1471.909496
 20
758.499756
 30
0.0
 10
1466.509511
 20
759.699772
 30
0.0
 10
1461.109497
 20
759.699772
 30
0.0
 10
1455.709484
 20
759.699772
 30
0.0
 10
1450.309471
 20
759.699772
 30
0.0
 10
1444.909457
 20
759.099764
 30
0.0
 10
1439.509472
 20
757.899748
 30
0.0
 10
1434.109459
 20
756.699761
 30
0.0
 10
1428.709445
 20
754.899766
 30
0.0
 10
1423.309432
 20
753.099743
 30
0.0
 10
1418.509426
 20
750.699740
 30
0.0
 10
1413.109441
 20
747.699758
 30
0.0
 10
1408.309407
 20
744.699747
 30
0.0
 10
1403.509402
 20
741.699737
 30
0.0
 10
1399.309404
 20
737.499739
 30
0.0
 10
1394.509398
 20
733.899721
 30
0.0
 10
1390.309401
 20
729.099715
 30
0.0
 10
1386.709382
 20
724.899717
 30
0.0
 10
1383.109392
 20
719.499704
 30
0.0
 10
1379.509374
 20
714.699698
 30
0.0
 10
1376.509392
 20
708.699705
 30
0.0
 10
1373.509381
 20
703.299692
 30
0.0
 10
1371.109378
 20
697.299671
 30
0.0
 10
1368.709375
 20
690.699670
 30
0.0
 10
1366.909380
 20
684.099670
 30
0.0
 10
1365.109357
 20
677.499641
 30
0.0
 10
1363.909370
 20
670.299632
 30
0.0
 10
1362.709354
 20
663.099624
 30
0.0
 10
1361.509367
 20
655.899615
 30
0.0
 10
1360.309352
 20
648.099628
 30
0.0
 10
1359.709344
 20
640.299611
 30
0.0
 10
1359.109364
 20
632.499595
 30
0.0
 10
1358.509357
 20
616.899563
 30
0.0
 10
1357.309341
 20
600.099543
 30
0.0
 10
1356.109354
 20
583.899531
 30
0.0
 10
1355.509346
 20
575.499508
 30
0.0
 10
1354.909338
 20
567.699520
 30
0.0
 10
1353.709351
 20
559.299496
 30
0.0
 10
1352.509335
 20
550.899500
 30
0.0
 10
1350.709340
 20
543.099484
 30
0.0
 10
1348.909345
 20
535.299468
 30
0.0
 10
1347.109350
 20
526.899444
 30
0.0
 10
1344.109340
 20
519.699435
 30
0.0
 10
1341.109329
 20
511.899448
 30
0.0
 10
1338.109319
 20
504.099431
 30
0.0
 10
1333.909321
 20
496.899423
 30
0.0
 10
1329.709323
 20
489.699415
 30
0.0
 10
1324.909317
 20
483.099414
 30
0.0
 10
1319.509304
 20
476.499385
 30
0.0
 10
1314.109291
 20
469.899384
 30
0.0
 10
1307.509290
 20
463.299384
 30
0.0
 10
1300.909289
 20
457.299363
 30
0.0
 10
1293.109273
 20
451.299370
 30
0.0
 10
1285.309257
 20
445.299349
 30
0.0
 10
1276.909261
 20
439.899335
 30
0.0
 10
1267.909230
 20
435.099330
 30
0.0
 10
1258.309218
 20
429.699316
 30
0.0
 10
1248.709207
 20
424.899311
 30
0.0
 10
1237.909209
 20
420.699313
 30
0.0
 10
1227.109182
 20
415.899307
 30
0.0
 10
1215.709176
 20
411.699309
 30
0.0
 10
1203.709162
 20
408.099291
 30
0.0
 10
1191.109140
 20
404.499301
 30
0.0
 10
1178.509118
 20
400.899283
 30
0.0
 10
1165.309117
 20
397.899300
 30
0.0
 10
1152.109088
 20
394.299282
 30
0.0
 10
1138.309079
 20
391.899279
 30
0.0
 10
1123.909062
 20
388.899269
 30
0.0
 10
1109.509017
 20
386.499266
 30
0.0
 10
1095.109000
 20
384.099263
 30
0.0
 10
1080.109004
 20
382.299268
 30
0.0
 10
1065.108979
 20
379.899265
 30
0.0
 10
1049.508947
 20
378.099270
 30
0.0
 10
1034.508922
 20
376.899255
 30
0.0
 10
1018.908918
 20
375.099260
 30
0.0
 10
987.708882
 20
372.699257
 30
0.0
 10
956.508817
 20
370.299254
 30
0.0
 10
925.908788
 20
368.499259
 30
0.0
 10
910.308756
 20
367.899251
 30
0.0
 10
895.308760
 20
367.299244
 30
0.0
 10
880.308735
 20
366.699236
 30
0.0
 10
865.308711
 20
366.099256
 30
0.0
 10
850.908694
 20
366.099256
 30
0.0
 10
835.908669
 20
365.499249
 30
0.0
 10
822.108660
 20
365.499249
 30
0.0
 10
808.308623
 20
364.899241
 30
0.0
 10
794.508614
 20
364.899241
 30
0.0
 10
781.308613
 20
364.899241
 30
0.0
 10
768.108583
 20
364.899241
 30
0.0
 10
755.508561
 20
364.899241
 30
0.0
 10
742.908540
 20
364.899241
 30
0.0
 10
730.908526
 20
364.899241
 30
0.0
 10
718.908512
 20
364.899241
 30
0.0
 10
707.508505
 20
364.899241
 30
0.0
 10
696.708479
 20
364.899241
 30
0.0
 10
685.908480
 20
365.499249
 30
0.0
 10
675.708461
 20
365.499249
 30
0.0
 10
665.508442
 20
366.099256
 30
0.0
 10
655.908431
 20
366.699236
 30
0.0
 10
646.308420
 20
366.699236
 30
0.0
 10
637.308417
 20
367.299244
 30
0.0
 10
628.908393
 20
367.899251
 30
0.0
 10
619.908389
 20
368.499259
 30
0.0
 10
612.108373
 20
369.699246
 30
0.0
 10
604.308357
 20
370.299254
 30
0.0
 10
596.508369
 20
371.499241
 30
0.0
 10
589.308361
 20
372.099249
 30
0.0
 10
582.108352
 20
373.299265
 30
0.0
 10
574.908344
 20
374.499252
 30
0.0
 10
568.308315
 20
376.299247
 30
0.0
 10
561.708314
 20
377.499263
 30
0.0
 10
555.708293
 20
379.299258
 30
0.0
 10
549.108292
 20
381.099253
 30
0.0
 10
543.708279
 20
382.899276
 30
0.0
 10
537.708286
 20
384.699271
 30
0.0
 10
531.708265
 20
387.099274
 30
0.0
 10
526.308280
 20
389.499277
 30
0.0
 10
520.908267
 20
391.899279
 30
0.0
 10
515.508253
 20
394.899290
 30
0.0
 10
510.108240
 20
397.299293
 30
0.0
 10
504.708227
 20
400.299303
 30
0.0
 10
499.908221
 20
403.899293
 30
0.0
 10
494.508236
 20
406.899304
 30
0.0
 10
489.708230
 20
410.499294
 30
0.0
 10
484.908225
 20
414.099312
 30
0.0
 10
480.108219
 20
418.299310
 30
0.0
 10
475.308214
 20
422.499308
 30
0.0
 10
470.508208
 20
426.699334
 30
0.0
 10
465.708202
 20
430.899332
 30
0.0
 10
460.908168
 20
435.699337
 30
0.0
 10
456.108163
 20
440.499343
 30
0.0
 10
451.308157
 20
445.299349
 30
0.0
 10
446.508152
 20
450.699362
 30
0.0
 10
441.708146
 20
456.099375
 30
0.0
 10
437.508148
 20
461.499360
 30
0.0
 10
432.708143
 20
467.499382
 30
0.0
 10
427.908137
 20
473.499374
 30
0.0
 10
423.708139
 20
479.499396
 30
0.0
 10
418.908134
 20
486.099396
 30
0.0
 10
414.108128
 20
492.699425
 30
0.0
 10
409.908102
 20
499.299426
 30
0.0
 10
405.108096
 20
506.499434
 30
0.0
 10
403.908109
 20
517.899440
 30
0.0
 10
402.708093
 20
529.299447
 30
0.0
 10
401.508106
 20
540.699481
 30
0.0
 10
400.308091
 20
551.499480
 30
0.0
 10
398.508096
 20
562.299506
 30
0.0
 10
396.708101
 20
572.499525
 30
0.0
 10
394.908106
 20
582.699544
 30
0.0
 10
393.108082
 20
592.899535
 30
0.0
 10
391.308087
 20
603.099554
 30
0.0
 10
388.908084
 20
612.699565
 30
0.0
 10
387.108089
 20
622.299576
 30
0.0
 10
384.708087
 20
631.299580
 30
0.0
 10
382.308084
 20
640.299611
 30
0.0
 10
379.908081
 20
648.699607
 30
0.0
 10
376.908070
 20
657.699639
 30
0.0
 10
374.508068
 20
665.499627
 30
0.0
 10
371.508057
 20
673.899651
 30
0.0
 10
368.508075
 20
681.699667
 30
0.0
 10
365.508064
 20
689.499683
 30
0.0
 10
362.508054
 20
696.699691
 30
0.0
 10
358.908035
 20
703.899700
 30
0.0
 10
355.908053
 20
710.499700
 30
0.0
 10
352.308035
 20
717.099701
 30
0.0
 10
348.708045
 20
723.699702
 30
0.0
 10
345.108026
 20
729.699723
 30
0.0
 10
340.908028
 20
735.699744
 30
0.0
 10
337.308010
 20
741.099729
 30
0.0
 10
333.108012
 20
746.499742
 30
0.0
 10
328.908015
 20
751.899756
 30
0.0
 10
324.708045
 20
756.699761
 30
0.0
 10
320.507962
 20
760.899759
 30
0.0
 10
316.307879
 20
765.699765
 30
0.0
 10
312.108080
 20
769.899762
 30
0.0
 10
307.307904
 20
773.499781
 30
0.0
 10
302.508012
 20
777.099771
 30
0.0
 10
298.307929
 20
780.699789
 30
0.0
 10
293.508037
 20
783.699800
 30
0.0
 10
288.707861
 20
786.699810
 30
0.0
 10
283.907969
 20
789.099813
 30
0.0
 10
279.108077
 20
792.099795
 30
0.0
 10
273.707808
 20
793.899819
 30
0.0
 10
268.907916
 20
796.299822
 30
0.0
 10
264.108024
 20
798.099817
 30
0.0
 10
259.307848
 20
799.899812
 30
0.0
 10
253.907863
 20
801.699807
 30
0.0
 10
249.107971
 20
802.899822
 30
0.0
 10
244.307795
 20
804.099809
 30
0.0
 10
239.507903
 20
805.299825
 30
0.0
 10
234.708011
 20
805.899833
 30
0.0
 10
229.907835
 20
806.499812
 30
0.0
 10
225.107943
 20
807.099820
 30
0.0
 10
220.907860
 20
807.699828
 30
0.0
 10
216.107968
 20
808.299836
 30
0.0
 10
211.907885
 20
808.299836
 30
0.0
 10
207.707802
 20
808.899815
 30
0.0
 10
203.507719
 20
808.899815
 30
0.0
 10
199.907729
 20
808.899815
 30
0.0
 10
196.307739
 20
808.899815
 30
0.0
 10
192.707749
 20
808.299836
 30
0.0
 10
189.707852
 20
808.299836
 30
0.0
 10
186.107862
 20
808.299836
 30
0.0
 10
183.707774
 20
807.699828
 30
0.0
 10
180.707877
 20
807.099820
 30
0.0
 10
178.307789
 20
807.099820
 30
0.0
 10
154.307761
 20
807.099820
 30
0.0
 10
154.307761
 20
750.099761
 30
0.0
 10
178.907882
 20
750.099761
 30
0.0
 10
178.907882
 20
693.699681
 30
0.0
 10
154.307761
 20
693.699681
 30
0.0
 10
154.307761
 20
636.699593
 30
0.0
 10
178.307789
 20
636.699593
 30
0.0
 10
178.307789
 20
580.299513
 30
0.0
 10
154.307761
 20
580.299513
 30
0.0
  0
SPLINE
  5
3b9
100
AcDbEntity
  8
Layer_1
 62
7
100
AcDbSpline
 70
8
 71
3
 72
8
 73
4
 74
0
 40
0
 40
0
 40
0
 40
0
 40
1
 40
1
 40
1
 40
1
 10
2619.712179
 20
1102.599275
 30
0.0
 10
2619.712179
 20
1094.812034
 30
0.0
 10
2626.024987
 20
1088.499225
 30
0.0
 10
2633.812229
 20
1088.499225
 30
0.0
  0
SPLINE
  5
3ba
100
AcDbEntity
  8
Layer_1
 62
7
100
AcDbSpline
 70
8
 71
3
 72
8
 73
4
 74
0
 40
0
 40
0
 40
0
 40
0
 40
1
 40
1
 40
1
 40
1
 10
2633.812229
 20
1088.499225
 30
0.0
 10
2641.599470
 20
1088.499225
 30
0.0
 10
2647.912278
 20
1094.812034
 30
0.0
 10
2647.912278
 20
1102.599275
 30
0.0
  0
SPLINE
  5
3bb
100
AcDbEntity
  8
Layer_1
 62
7
100
AcDbSpline
 70
8
 71
3
 72
8
 73
4
 74
0
 40
0
 40
0
 40
0
 40
0
 40
1
 40
1
 40
1
 40
1
 10
2647.912278
 20
1102.599275
 30
0.0
 10
2647.912278
 20
1110.386517
 30
0.0
 10
2641.599470
 20
1116.699325
 30
0.0
 10
2633.812229
 20
1116.699325
 30
0.0
  0
SPLINE
  5
3bc
100
AcDbEntity
  8
Layer_1
 62
7
100
AcDbSpline
 70
8
 71
3
 72
8
 73
4
 74
0
 40
0
 40
0
 40
0
 40
0
 40
1
 40
1
 40
1
 40
1
 10
2633.812229
 20
1116.699325
 30
0.0
 10
2626.024987
 20
1116.699325
 30
0.0
 10
2619.712179
 20
1110.386517
 30
0.0
 10
2619.712179
 20
1102.599275
 30
0.0
  0
SPLINE
  5
3bd
100
AcDbEntity
  8
Layer_1
 62
7
100
AcDbSpline
 70
8
 71
3
 72
8
 73
4
 74
0
 40
0
 40
0
 40
0
 40
0
 40
1
 40
1
 40
1
 40
1
 10
2239.309363
 20
649.598641
 30
0.0
 10
2239.309363
 20
633.858467
 30
0.0
 10
2252.069290
 20
621.098540
 30
0.0
 10
2267.809463
 20
621.098540
 30
0.0
  0
SPLINE
  5
3be
100
AcDbEntity
  8
Layer_1
 62
7
100
AcDbSpline
 70
8
 71
3
 72
8
 73
4
 74
0
 40
0
 40
0
 40
0
 40
0
 40
1
 40
1
 40
1
 40
1
 10
2267.809463
 20
621.098540
 30
0.0
 10
2283.549637
 20
621.098540
 30
0.0
 10
2296.309564
 20
633.858467
 30
0.0
 10
2296.309564
 20
649.598641
 30
0.0
  0
SPLINE
  5
3bf
100
AcDbEntity
  8
Layer_1
 62
7
100
AcDbSpline
 70
8
 71
3
 72
8
 73
4
 74
0
 40
0
 40
0
 40
0
 40
0
 40
1
 40
1
 40
1
 40
1
 10
2296.309564
 20
649.598641
 30
0.0
 10
2296.309564
 20
665.338814
 30
0.0
 10
2283.549637
 20
678.098741
 30
0.0
 10
2267.809463
 20
678.098741
 30
0.0
  0
SPLINE
  5
3c0
100
AcDbEntity
  8
Layer_1
 62
7
100
AcDbSpline
 70
8
 71
3
 72
8
 73
4
 74
0
 40
0
 40
0
 40
0
 40
0
 40
1
 40
1
 40
1
 40
1
 10
2267.809463
 20
678.098741
 30
0.0
 10
2252.069290
 20
678.098741
 30
0.0
 10
2239.309363
 20
665.338814
 30
0.0
 10
2239.309363
 20
649.598641
 30
0.0
  0
LWPOLYLINE
  5
3c1
100
AcDbEntity
  8
Layer_1
 62
7
100
AcDbPolyline
 90
358
 70
1
 10
3508.912175
 20
1058.500163
 30
0.0
 10
3508.912175
 20
1115.500222
 30
0.0
 10
3484.312139
 20
1115.500222
 30
0.0
 10
3484.312139
 20
1171.900302
 30
0.0
 10
2543.510901
 20
1171.900302
 30
0.0
 10
2529.710892
 20
1173.100289
 30
0.0
 10
2515.310875
 20
1173.700297
 30
0.0
 10
2501.510838
 20
1174.300305
 30
0.0
 10
2487.710829
 20
1174.300305
 30
0.0
 10
2473.910820
 20
1174.300305
 30
0.0
 10
2460.710790
 20
1173.700297
 30
0.0
 10
2447.510789
 20
1172.500310
 30
0.0
 10
2433.710752
 20
1171.300294
 30
0.0
 10
2421.110758
 20
1169.500299
 30
0.0
 10
2407.910729
 20
1167.100296
 30
0.0
 10
2395.310707
 20
1164.700294
 30
0.0
 10
2382.710685
 20
1161.700283
 30
0.0
 10
2370.110692
 20
1158.700272
 30
0.0
 10
2358.110649
 20
1155.100282
 30
0.0
 10
2346.110635
 20
1150.900285
 30
0.0
 10
2334.710629
 20
1146.100279
 30
0.0
 10
2323.310623
 20
1140.700266
 30
0.0
 10
2312.510596
 20
1135.300252
 30
0.0
 10
2301.710598
 20
1129.300231
 30
0.0
 10
2296.910592
 20
1126.300249
 30
0.0
 10
2291.510579
 20
1122.700230
 30
0.0
 10
2286.710573
 20
1119.100240
 30
0.0
 10
2281.910568
 20
1115.500222
 30
0.0
 10
2277.110562
 20
1111.900232
 30
0.0
 10
2272.310556
 20
1108.300214
 30
0.0
 10
2268.110559
 20
1104.100216
 30
0.0
 10
2263.310553
 20
1099.900218
 30
0.0
 10
2259.110527
 20
1095.700192
 30
0.0
 10
2254.910529
 20
1091.500194
 30
0.0
 10
2250.710531
 20
1086.700188
 30
0.0
 10
2246.510505
 20
1082.500191
 30
0.0
 10
2242.910515
 20
1077.700185
 30
0.0
 10
2238.710517
 20
1072.900179
 30
0.0
 10
2235.110499
 20
1067.500166
 30
0.0
 10
2231.510509
 20
1062.700161
 30
0.0
 10
2227.910490
 20
1057.300147
 30
0.0
 10
2224.310500
 20
1051.900134
 30
0.0
 10
2221.310490
 20
1046.500149
 30
0.0
 10
2218.310479
 20
1041.100135
 30
0.0
 10
2214.710489
 20
1035.700122
 30
0.0
 10
2211.710479
 20
1029.700101
 30
0.0
 10
2206.310465
 20
1017.700087
 30
0.0
 10
2200.910452
 20
1005.700073
 30
0.0
 10
2200.310444
 20
1003.300070
 30
0.0
 10
2199.110457
 20
1000.900067
 30
0.0
 10
2198.510449
 20
998.500064
 30
0.0
 10
2197.310462
 20
994.900074
 30
0.0
 10
2195.510439
 20
991.300056
 30
0.0
 10
2194.310451
 20
987.700066
 30
0.0
 10
2192.510456
 20
983.500068
 30
0.0
 10
2190.710433
 20
978.700034
 30
0.0
 10
2188.910438
 20
973.300049
 30
0.0
 10
2186.510435
 20
967.900036
 30
0.0
 10
2184.710440
 20
961.900015
 30
0.0
 10
2182.310437
 20
955.300014
 30
0.0
 10
2179.910435
 20
948.100006
 30
0.0
 10
2178.110440
 20
940.899997
 30
0.0
 10
2175.710437
 20
933.099981
 30
0.0
 10
2173.310434
 20
924.699985
 30
0.0
 10
2171.510411
 20
915.699954
 30
0.0
 10
2169.710416
 20
906.699950
 30
0.0
 10
2167.310413
 20
897.099939
 30
0.0
 10
2165.510418
 20
887.499928
 30
0.0
 10
2164.310402
 20
877.899917
 30
0.0
 10
2162.510407
 20
868.299906
 30
0.0
 10
2161.310392
 20
858.099887
 30
0.0
 10
2160.710412
 20
848.499875
 30
0.0
 10
2159.510397
 20
838.899864
 30
0.0
 10
2158.910389
 20
829.299853
 30
0.0
 10
2158.910389
 20
820.299850
 30
0.0
 10
2158.310409
 20
811.299818
 30
0.0
 10
2158.310409
 20
802.899822
 30
0.0
 10
2158.310409
 20
794.499798
 30
0.0
 10
2158.310409
 20
787.299790
 30
0.0
 10
2158.310409
 20
780.099781
 30
0.0
 10
2158.910389
 20
773.499781
 30
0.0
 10
2158.910389
 20
767.499760
 30
0.0
 10
2159.510397
 20
761.499767
 30
0.0
 10
2159.510397
 20
756.699761
 30
0.0
 10
2160.110404
 20
751.899756
 30
0.0
 10
2160.110404
 20
747.699758
 30
0.0
 10
2160.710412
 20
744.099739
 30
0.0
 10
2160.710412
 20
739.899742
 30
0.0
 10
2161.310392
 20
732.699733
 30
0.0
 10
2161.910399
 20
729.099715
 30
0.0
 10
2161.910399
 20
724.899717
 30
0.0
 10
2161.910399
 20
720.099712
 30
0.0
 10
2162.510407
 20
715.299706
 30
0.0
 10
2163.110415
 20
709.899693
 30
0.0
 10
2163.710423
 20
703.899700
 30
0.0
 10
2164.310402
 20
697.299671
 30
0.0
 10
2165.510418
 20
690.099662
 30
0.0
 10
2166.110426
 20
682.899654
 30
0.0
 10
2167.910421
 20
675.099638
 30
0.0
 10
2169.110408
 20
666.699642
 30
0.0
 10
2171.510411
 20
658.299618
 30
0.0
 10
2173.910413
 20
649.299615
 30
0.0
 10
2176.310416
 20
640.299611
 30
0.0
 10
2179.310427
 20
631.299580
 30
0.0
 10
2182.910445
 20
622.299576
 30
0.0
 10
2186.510435
 20
613.899581
 30
0.0
 10
2190.710433
 20
605.499557
 30
0.0
 10
2195.510439
 20
597.099561
 30
0.0
 10
2197.910441
 20
592.899535
 30
0.0
 10
2200.310444
 20
589.299545
 30
0.0
 10
2203.310455
 20
585.699526
 30
0.0
 10
2206.310465
 20
582.099536
 30
0.0
 10
2208.710468
 20
578.499518
 30
0.0
 10
2211.710479
 20
575.499508
 30
0.0
 10
2215.310469
 20
572.499525
 30
0.0
 10
2218.310479
 20
569.499515
 30
0.0
 10
2221.310490
 20
567.099512
 30
0.0
 10
2224.910480
 20
564.099501
 30
0.0
 10
2228.510498
 20
562.299506
 30
0.0
 10
2231.510509
 20
559.899504
 30
0.0
 10
2235.110499
 20
558.099508
 30
0.0
 10
2238.710517
 20
556.299485
 30
0.0
 10
2242.910515
 20
554.499490
 30
0.0
 10
2246.510505
 20
553.299503
 30
0.0
 10
2250.110523
 20
552.099487
 30
0.0
 10
2253.710513
 20
550.899500
 30
0.0
 10
2257.910540
 20
550.299492
 30
0.0
 10
2261.510530
 20
549.699485
 30
0.0
 10
2265.710556
 20
549.699485
 30
0.0
 10
2269.310546
 20
549.099477
 30
0.0
 10
2272.910564
 20
549.099477
 30
0.0
 10
2277.110562
 20
549.699485
 30
0.0
 10
2280.710552
 20
549.699485
 30
0.0
 10
2284.310570
 20
550.299492
 30
0.0
 10
2287.910560
 20
551.499480
 30
0.0
 10
2292.110587
 20
552.099487
 30
0.0
 10
2295.710577
 20
553.299503
 30
0.0
 10
2299.310595
 20
554.499490
 30
0.0
 10
2302.310577
 20
556.299485
 30
0.0
 10
2305.910596
 20
557.499501
 30
0.0
 10
2308.910606
 20
559.299496
 30
0.0
 10
2312.510596
 20
561.099491
 30
0.0
 10
2315.510607
 20
563.499494
 30
0.0
 10
2318.510617
 20
565.299517
 30
0.0
 10
2321.510628
 20
567.699520
 30
0.0
 10
2323.910631
 20
570.099522
 30
0.0
 10
2326.910613
 20
572.499525
 30
0.0
 10
2329.310616
 20
574.899528
 30
0.0
 10
2331.710619
 20
577.899510
 30
0.0
 10
2333.510642
 20
580.299513
 30
0.0
 10
2335.910645
 20
583.299524
 30
0.0
 10
2337.710640
 20
586.299534
 30
0.0
 10
2339.510635
 20
589.299545
 30
0.0
 10
2341.310630
 20
592.299555
 30
0.0
 10
2342.510645
 20
595.299538
 30
0.0
 10
2343.710633
 20
598.899556
 30
0.0
 10
2344.910648
 20
601.899567
 30
0.0
 10
2346.110635
 20
605.499557
 30
0.0
 10
2346.710643
 20
608.499567
 30
0.0
 10
2347.910659
 20
612.099557
 30
0.0
 10
2348.510638
 20
619.299566
 30
0.0
 10
2349.110646
 20
625.899595
 30
0.0
 10
2349.110646
 20
633.099603
 30
0.0
 10
2348.510638
 20
640.299611
 30
0.0
 10
2347.910659
 20
647.499620
 30
0.0
 10
2346.710643
 20
654.699628
 30
0.0
 10
2344.910648
 20
662.499644
 30
0.0
 10
2341.310630
 20
676.899661
 30
0.0
 10
2337.710640
 20
691.899686
 30
0.0
 10
2335.910645
 20
699.099694
 30
0.0
 10
2334.110621
 20
706.299703
 30
0.0
 10
2332.910634
 20
714.099690
 30
0.0
 10
2331.710619
 20
721.299699
 30
0.0
 10
2331.110639
 20
728.499707
 30
0.0
 10
2330.510631
 20
735.699744
 30
0.0
 10
2330.510631
 20
742.899752
 30
0.0
 10
2331.110639
 20
750.099761
 30
0.0
 10
2332.310626
 20
757.299769
 30
0.0
 10
2334.110621
 20
764.499777
 30
0.0
 10
2335.910645
 20
771.099778
 30
0.0
 10
2338.310648
 20
778.299786
 30
0.0
 10
2341.310630
 20
784.899787
 30
0.0
 10
2344.910648
 20
791.499816
 30
0.0
 10
2349.110646
 20
798.099817
 30
0.0
 10
2353.310644
 20
804.099809
 30
0.0
 10
2358.110649
 20
810.099831
 30
0.0
 10
2362.910683
 20
816.099823
 30
0.0
 10
2367.710689
 20
822.099845
 30
0.0
 10
2373.110674
 20
827.499858
 30
0.0
 10
2378.510687
 20
832.299864
 30
0.0
 10
2383.910701
 20
837.099869
 30
0.0
 10
2389.310714
 20
841.899875
 30
0.0
 10
2394.110720
 20
846.099873
 30
0.0
 10
2398.910725
 20
849.699891
 30
0.0
 10
2403.710731
 20
853.299881
 30
0.0
 10
2407.910729
 20
856.299892
 30
0.0
 10
2409.710724
 20
857.499879
 30
0.0
 10
2411.510719
 20
858.699894
 30
0.0
 10
2413.310742
 20
859.899882
 30
0.0
 10
2415.110737
 20
861.099897
 30
0.0
 10
2416.310753
 20
861.699905
 30
0.0
 10
2418.110748
 20
862.899892
 30
0.0
 10
2431.310749
 20
867.699898
 30
0.0
 10
2445.110786
 20
871.899896
 30
0.0
 10
2458.910795
 20
876.099922
 30
0.0
 10
2473.310812
 20
879.699912
 30
0.0
 10
2487.710829
 20
882.699922
 30
0.0
 10
2502.710853
 20
885.699933
 30
0.0
 10
2517.110870
 20
888.699943
 30
0.0
 10
2532.710903
 20
891.099946
 30
0.0
 10
2547.710899
 20
892.899941
 30
0.0
 10
2563.310931
 20
894.699936
 30
0.0
 10
2578.910963
 20
895.899952
 30
0.0
 10
2595.110975
 20
897.699947
 30
0.0
 10
2610.710979
 20
898.299955
 30
0.0
 10
2626.911019
 20
899.499942
 30
0.0
 10
2642.511023
 20
900.099950
 30
0.0
 10
2658.711064
 20
900.699957
 30
0.0
 10
2691.111087
 20
901.299937
 30
0.0
 10
2723.511139
 20
901.299937
 30
0.0
 10
2755.311183
 20
901.899945
 30
0.0
 10
2786.511220
 20
901.899945
 30
0.0
 10
2802.111252
 20
901.899945
 30
0.0
 10
2817.711256
 20
901.899945
 30
0.0
 10
2832.711281
 20
901.899945
 30
0.0
 10
2847.711305
 20
901.899945
 30
0.0
 10
2862.111322
 20
902.499952
 30
0.0
 10
2876.511339
 20
902.499952
 30
0.0
 10
2890.911358
 20
903.099960
 30
0.0
 10
2904.711379
 20
903.099960
 30
0.0
 10
2911.311385
 20
903.699940
 30
0.0
 10
2917.311395
 20
903.699940
 30
0.0
 10
2934.711416
 20
904.299948
 30
0.0
 10
2951.511439
 20
904.899955
 30
0.0
 10
2968.311461
 20
906.099943
 30
0.0
 10
2984.511482
 20
906.699950
 30
0.0
 10
3000.111503
 20
907.299958
 30
0.0
 10
3015.111522
 20
907.899966
 30
0.0
 10
3030.111540
 20
908.499945
 30
0.0
 10
3045.111562
 20
909.099953
 30
0.0
 10
3059.511579
 20
909.099953
 30
0.0
 10
3073.311599
 20
909.099953
 30
0.0
 10
3087.111617
 20
908.499945
 30
0.0
 10
3100.911634
 20
907.299958
 30
0.0
 10
3114.111653
 20
906.099943
 30
0.0
 10
3127.311668
 20
904.299948
 30
0.0
 10
3139.911685
 20
902.499952
 30
0.0
 10
3153.111702
 20
899.499942
 30
0.0
 10
3165.111718
 20
896.499931
 30
0.0
 10
3177.711734
 20
892.899941
 30
0.0
 10
3189.711750
 20
888.699943
 30
0.0
 10
3201.111764
 20
883.899938
 30
0.0
 10
3212.511779
 20
878.499925
 30
0.0
 10
3223.311794
 20
873.699919
 30
0.0
 10
3234.111809
 20
867.699898
 30
0.0
 10
3243.711821
 20
861.699905
 30
0.0
 10
3248.511826
 20
858.699894
 30
0.0
 10
3252.711833
 20
855.699884
 30
0.0
 10
3257.511838
 20
852.699873
 30
0.0
 10
3261.711844
 20
849.699891
 30
0.0
 10
3265.911851
 20
846.699880
 30
0.0
 10
3269.511855
 20
843.699870
 30
0.0
 10
3273.111859
 20
840.699859
 30
0.0
 10
3276.711863
 20
837.699877
 30
0.0
 10
3279.711868
 20
834.699866
 30
0.0
 10
3283.311872
 20
831.699856
 30
0.0
 10
3285.711875
 20
828.699845
 30
0.0
 10
3288.711880
 20
826.299842
 30
0.0
 10
3291.111883
 20
823.299832
 30
0.0
 10
3293.511886
 20
820.299850
 30
0.0
 10
3295.911889
 20
817.899847
 30
0.0
 10
3297.711892
 20
814.899836
 30
0.0
 10
3299.511893
 20
812.499833
 30
0.0
 10
3301.311896
 20
809.499823
 30
0.0
 10
3304.311901
 20
804.699817
 30
0.0
 10
3306.711904
 20
799.299804
 30
0.0
 10
3309.111907
 20
794.499798
 30
0.0
 10
3310.911907
 20
789.099813
 30
0.0
 10
3312.711911
 20
783.699800
 30
0.0
 10
3314.511915
 20
778.299786
 30
0.0
 10
3316.311915
 20
772.899773
 30
0.0
 10
3318.111919
 20
765.099757
 30
0.0
 10
3319.911919
 20
756.699761
 30
0.0
 10
3321.711923
 20
748.299737
 30
0.0
 10
3322.911924
 20
739.899742
 30
0.0
 10
3323.511926
 20
730.899710
 30
0.0
 10
3324.711928
 20
721.899707
 30
0.0
 10
3325.311927
 20
712.899703
 30
0.0
 10
3325.911929
 20
703.899700
 30
0.0
 10
3326.511929
 20
684.699677
 30
0.0
 10
3327.111931
 20
666.099634
 30
0.0
 10
3327.111931
 20
647.499620
 30
0.0
 10
3327.111931
 20
628.899577
 30
0.0
 10
3327.711930
 20
619.899573
 30
0.0
 10
3327.711930
 20
610.899570
 30
0.0
 10
3328.311932
 20
602.499546
 30
0.0
 10
3328.911931
 20
594.099550
 30
0.0
 10
3329.511933
 20
585.699526
 30
0.0
 10
3330.711935
 20
577.899510
 30
0.0
 10
3331.911936
 20
570.699502
 30
0.0
 10
3333.111938
 20
562.899514
 30
0.0
 10
3334.911941
 20
556.299485
 30
0.0
 10
3336.711942
 20
549.699485
 30
0.0
 10
3339.111945
 20
543.699492
 30
0.0
 10
3341.511947
 20
537.699471
 30
0.0
 10
3343.911953
 20
532.299457
 30
0.0
 10
3346.911955
 20
527.499452
 30
0.0
 10
3350.511959
 20
522.699446
 30
0.0
 10
3353.511964
 20
518.499448
 30
0.0
 10
3357.111968
 20
514.299450
 30
0.0
 10
3361.311975
 20
510.699432
 30
0.0
 10
3365.511981
 20
507.699421
 30
0.0
 10
3369.711985
 20
504.699439
 30
0.0
 10
3373.911991
 20
502.299436
 30
0.0
 10
3378.711996
 20
499.899434
 30
0.0
 10
3383.512005
 20
498.099410
 30
0.0
 10
3388.312010
 20
496.299415
 30
0.0
 10
3393.712018
 20
495.099428
 30
0.0
 10
3398.512024
 20
493.899412
 30
0.0
 10
3403.312029
 20
492.699425
 30
0.0
 10
3408.712037
 20
491.499410
 30
0.0
 10
3418.312048
 20
490.899402
 30
0.0
 10
3428.512062
 20
489.699415
 30
0.0
 10
3437.512074
 20
489.699415
 30
0.0
 10
3442.312079
 20
489.699415
 30
0.0
 10
3446.512074
 20
489.699415
 30
0.0
 10
3450.712100
 20
489.699415
 30
0.0
 10
3454.912098
 20
489.699415
 30
0.0
 10
3458.512088
 20
489.699415
 30
0.0
 10
3462.112106
 20
490.299422
 30
0.0
 10
3465.712125
 20
490.299422
 30
0.0
 10
3469.312115
 20
490.299422
 30
0.0
 10
3472.312125
 20
490.899402
 30
0.0
 10
3474.712128
 20
490.899402
 30
0.0
 10
3477.712139
 20
490.899402
 30
0.0
 10
3480.112142
 20
491.499410
 30
0.0
 10
3482.512144
 20
491.499410
 30
0.0
 10
3484.312139
 20
491.499410
 30
0.0
 10
3508.912175
 20
491.499410
 30
0.0
 10
3508.912175
 20
548.499497
 30
0.0
 10
3484.312139
 20
548.499497
 30
0.0
 10
3484.312139
 20
604.899549
 30
0.0
 10
3508.912175
 20
604.899549
 30
0.0
 10
3508.912175
 20
661.899637
 30
0.0
 10
3484.312139
 20
661.899637
 30
0.0
 10
3484.312139
 20
718.299717
 30
0.0
 10
3508.912175
 20
718.299717
 30
0.0
 10
3508.912175
 20
775.299776
 30
0.0
 10
3484.312139
 20
775.299776
 30
0.0
 10
3484.312139
 20
831.699856
 30
0.0
 10
3508.912175
 20
831.699856
 30
0.0
 10
3508.912175
 20
888.699943
 30
0.0
 10
3484.312139
 20
888.699943
 30
0.0
 10
3484.312139
 20
945.099995
 30
0.0
 10
3508.912175
 20
945.099995
 30
0.0
 10
3508.912175
 20
1002.100083
 30
0.0
 10
3484.312139
 20
1002.100083
 30
0.0
 10
3484.312139
 20
1058.500163
 30
0.0
  0
LWPOLYLINE
  5
3c2
100
AcDbEntity
  8
Layer_1
 62
7
100
AcDbPolyline
 90
3
 70
0
 10
3123.711664
 20
2667.702308
 30
0.0
 10
3076.311601
 20
2655.102343
 30
0.0
 10
3061.911582
 20
2709.702286
 30
0.0
  0
LWPOLYLINE
  5
3c3
100
AcDbEntity
  8
Layer_1
 62
7
100
AcDbPolyline
 90
3
 70
0
 10
2611.310987
 20
1742.501045
 30
0.0
 10
2577.110940
 20
1776.701092
 30
0.0
 10
2617.311008
 20
1816.901132
 30
0.0
  0
LWPOLYLINE
  5
3c4
100
AcDbEntity
  8
Layer_1
 62
7
100
AcDbPolyline
 90
3
 70
0
 10
3049.911568
 20
2941.302684
 30
0.0
 10
3064.911587
 20
2886.702457
 30
0.0
 10
3017.511524
 20
2874.102492
 30
0.0
  0
LWPOLYLINE
  5
3c5
100
AcDbEntity
  8
Layer_1
 62
7
100
AcDbPolyline
 90
3
 70
0
 10
3032.511543
 20
2819.502549
 30
0.0
 10
3079.311606
 20
2832.102514
 30
0.0
 10
3094.311625
 20
2776.902478
 30
0.0
  0
LWPOLYLINE
  5
3c6
100
AcDbEntity
  8
Layer_1
 62
7
100
AcDbPolyline
 90
3
 70
0
 10
3006.111510
 20
3105.702889
 30
0.0
 10
2958.711447
 20
3093.102924
 30
0.0
 10
2944.311431
 20
3147.702868
 30
0.0
  0
LWPOLYLINE
  5
3c7
100
AcDbEntity
  8
Layer_1
 62
7
100
AcDbPolyline
 90
3
 70
0
 10
3489.712153
 20
2241.701599
 30
0.0
 10
3502.312146
 20
2289.101845
 30
0.0
 10
3556.912231
 20
2274.101792
 30
0.0
  0
LWPOLYLINE
  5
3c8
100
AcDbEntity
  8
Layer_1
 62
7
100
AcDbPolyline
 90
3
 70
0
 10
2531.510887
 20
1662.100937
 30
0.0
 10
2496.710832
 20
1696.900992
 30
0.0
 10
2536.910900
 20
1737.101032
 30
0.0
  0
SPLINE
  5
3c9
100
AcDbEntity
  8
Layer_1
 62
7
100
AcDbSpline
 70
8
 71
3
 72
8
 73
4
 74
0
 40
0
 40
0
 40
0
 40
0
 40
1
 40
1
 40
1
 40
1
 10
3179.379140
 20
2108.490802
 30
0.0
 10
3156.390902
 20
2108.861102
 30
0.0
 10
3134.235342
 20
2099.892320
 30
0.0
 10
3117.978096
 20
2083.635074
 30
0.0
  0
SPLINE
  5
3ca
100
AcDbEntity
  8
Layer_1
 62
7
100
AcDbSpline
 70
8
 71
3
 72
8
 73
4
 74
0
 40
0
 40
0
 40
0
 40
0
 40
1
 40
1
 40
1
 40
1
 10
3179.531764
 20
2108.525074
 30
0.0
 10
3224.444719
 20
2107.801612
 30
0.0
 10
3268.665408
 20
2119.649751
 30
0.0
 10
3307.200191
 20
2142.731539
 30
0.0
  0
LWPOLYLINE
  5
3cb
100
AcDbEntity
  8
Layer_1
 62
7
100
AcDbPolyline
 90
2
 70
0
 10
2772.711211
 20
1737.701040
 30
0.0
 10
3118.311656
 20
2083.301499
 30
0.0
  0
LWPOLYLINE
  5
3cc
100
AcDbEntity
  8
Layer_1
 62
7
100
AcDbPolyline
 90
3
 70
0
 10
2988.111486
 20
2983.902755
 30
0.0
 10
2973.711469
 20
3038.502698
 30
0.0
 10
3020.511529
 20
3051.102663
 30
0.0
  0
LWPOLYLINE
  5
3cd
100
AcDbEntity
  8
Layer_1
 62
7
100
AcDbPolyline
 90
3
 70
0
 10
2777.511216
 20
1977.701348
 30
0.0
 10
2811.711263
 20
1942.901321
 30
0.0
 10
2771.511195
 20
1902.701253
 30
0.0
  0
LWPOLYLINE
  5
3ce
100
AcDbEntity
  8
Layer_1
 62
7
100
AcDbPolyline
 90
3
 70
0
 10
2937.711421
 20
2137.901556
 30
0.0
 10
2972.511465
 20
2103.101529
 30
0.0
 10
2932.311414
 20
2063.501469
 30
0.0
  0
LWPOLYLINE
  5
3cf
100
AcDbEntity
  8
Layer_1
 62
7
100
AcDbPolyline
 90
3
 70
0
 10
2962.311452
 20
3270.103095
 30
0.0
 10
2976.711471
 20
3215.502869
 30
0.0
 10
2929.911411
 20
3202.902904
 30
0.0
  0
LWPOLYLINE
  5
3d0
100
AcDbEntity
  8
Layer_1
 62
7
100
AcDbPolyline
 90
3
 70
0
 10
3666.112373
 20
2244.701779
 30
0.0
 10
3653.512351
 20
2197.901654
 30
0.0
 10
3598.912294
 20
2212.301671
 30
0.0
  0
LWPOLYLINE
  5
3d1
100
AcDbEntity
  8
Layer_1
 62
7
100
AcDbPolyline
 90
3
 70
0
 10
2656.911040
 20
1857.101200
 30
0.0
 10
2697.111108
 20
1897.301240
 30
0.0
 10
2731.911163
 20
1862.501213
 30
0.0
  0
SPLINE
  5
3d2
100
AcDbEntity
  8
Layer_1
 62
7
100
AcDbSpline
 70
8
 71
3
 72
8
 73
4
 74
0
 40
0
 40
0
 40
0
 40
0
 40
1
 40
1
 40
1
 40
1
 10
2996.113160
 20
2500.895879
 30
0.0
 10
2960.593592
 20
2456.983543
 30
0.0
 10
2941.632270
 20
2401.987068
 30
0.0
 10
2942.541935
 20
2345.514904
 30
0.0
  0
SPLINE
  5
3d3
100
AcDbEntity
  8
Layer_1
 62
7
100
AcDbSpline
 70
8
 71
3
 72
8
 73
4
 74
0
 40
0
 40
0
 40
0
 40
0
 40
1
 40
1
 40
1
 40
1
 10
2917.646180
 20
2284.570711
 30
0.0
 10
2933.903426
 20
2300.827957
 30
0.0
 10
2942.872208
 20
2322.983517
 30
0.0
 10
2942.501908
 20
2345.971755
 30
0.0
  0
LWPOLYLINE
  5
3d4
100
AcDbEntity
  8
Layer_1
 62
7
100
AcDbPolyline
 90
3
 70
0
 10
3721.312437
 20
2230.301678
 30
0.0
 10
3775.912522
 20
2215.901661
 30
0.0
 10
3763.312500
 20
2168.501613
 30
0.0
  0
LWPOLYLINE
  5
3d5
100
AcDbEntity
  8
Layer_1
 62
7
100
AcDbPolyline
 90
2
 70
0
 10
2917.911394
 20
2283.701860
 30
0.0
 10
2572.310934
 20
1938.101316
 30
0.0
  0
LWPOLYLINE
  5
3d6
100
AcDbEntity
  8
Layer_1
 62
7
100
AcDbPolyline
 90
3
 70
0
 10
2892.111360
 20
2023.301401
 30
0.0
 10
2851.911303
 20
1983.101361
 30
0.0
 10
2817.711256
 20
2017.301408
 30
0.0
  0
SPLINE
  5
3d7
100
AcDbEntity
  8
Layer_1
 62
7
100
AcDbSpline
 70
8
 71
3
 72
8
 73
4
 74
0
 40
0
 40
0
 40
0
 40
0
 40
1
 40
1
 40
1
 40
1
 10
3394.214393
 20
2467.124504
 30
0.0
 10
3405.387737
 20
2447.034143
 30
0.0
 10
3424.230463
 20
2432.333499
 30
0.0
 10
3446.435357
 20
2426.382953
 30
0.0
  0
SPLINE
  5
3d8
100
AcDbEntity
  8
Layer_1
 62
7
100
AcDbSpline
 70
8
 71
3
 72
8
 73
4
 74
0
 40
0
 40
0
 40
0
 40
0
 40
1
 40
1
 40
1
 40
1
 10
3393.943600
 20
2466.483064
 30
0.0
 10
3372.114962
 20
2505.732324
 30
0.0
 10
3339.749184
 20
2538.098102
 30
0.0
 10
3300.499925
 20
2559.926740
 30
0.0
  0
LWPOLYLINE
  5
3d9
100
AcDbEntity
  8
Layer_1
 62
7
100
AcDbPolyline
 90
2
 70
0
 10
3919.312710
 20
2299.301723
 30
0.0
 10
3446.512074
 20
2425.902033
 30
0.0
  0
LWPOLYLINE
  5
3da
100
AcDbEntity
  8
Layer_1
 62
7
100
AcDbPolyline
 90
3
 70
0
 10
3817.912585
 20
2154.101596
 30
0.0
 10
3830.512578
 20
2200.901636
 30
0.0
 10
3885.712671
 20
2186.501619
 30
0.0
  0
LWPOLYLINE
  5
3db
100
AcDbEntity
  8
Layer_1
 62
7
100
AcDbPolyline
 90
3
 70
0
 10
3994.912813
 20
2157.101578
 30
0.0
 10
3982.312791
 20
2109.701530
 30
0.0
 10
3927.712706
 20
2124.701554
 30
0.0
  0
SPLINE
  5
3dc
100
AcDbEntity
  8
Layer_1
 62
7
100
AcDbSpline
 70
8
 71
3
 72
8
 73
4
 74
0
 40
0
 40
0
 40
0
 40
0
 40
1
 40
1
 40
1
 40
1
 10
2479.577918
 20
1565.766089
 30
0.0
 10
2512.733574
 20
1532.610433
 30
0.0
 10
2566.489516
 20
1532.610433
 30
0.0
 10
2599.645171
 20
1565.766089
 30
0.0
  0
LWPOLYLINE
  5
3dd
100
AcDbEntity
  8
Layer_1
 62
7
100
AcDbPolyline
 90
3
 70
0
 10
4036.912847
 20
2095.301513
 30
0.0
 10
4049.512869
 20
2142.101582
 30
0.0
 10
4104.712934
 20
2127.701537
 30
0.0
  0
SPLINE
  5
3de
100
AcDbEntity
  8
Layer_1
 62
7
100
AcDbSpline
 70
8
 71
3
 72
8
 73
4
 74
0
 40
0
 40
0
 40
0
 40
0
 40
1
 40
1
 40
1
 40
1
 10
2700.928345
 20
1666.548531
 30
0.0
 10
2903.786830
 20
1523.213449
 30
0.0
 10
3159.873123
 20
1477.493638
 30
0.0
 10
3399.798385
 20
1541.777310
 30
0.0
  0
SPLINE
  5
3df
100
AcDbEntity
  8
Layer_1
 62
7
100
AcDbSpline
 70
8
 71
3
 72
8
 73
4
 74
0
 40
0
 40
0
 40
0
 40
0
 40
1
 40
1
 40
1
 40
1
 10
3399.798385
 20
1541.777310
 30
0.0
 10
3639.723596
 20
1606.061016
 30
0.0
 10
3838.646269
 20
1773.692296
 30
0.0
 10
3942.666529
 20
1999.250060
 30
0.0
  0
LWPOLYLINE
  5
3e0
100
AcDbEntity
  8
Layer_1
 62
7
100
AcDbPolyline
 90
2
 70
0
 10
2600.510989
 20
1565.500818
 30
0.0
 10
2701.311106
 20
1666.300935
 30
0.0
  0
SPLINE
  5
3e1
100
AcDbEntity
  8
Layer_1
 62
7
100
AcDbSpline
 70
8
 71
3
 72
8
 73
4
 74
0
 40
0
 40
0
 40
0
 40
0
 40
1
 40
1
 40
1
 40
1
 10
4080.637379
 20
1962.593687
 30
0.0
 10
4125.928457
 20
1950.456428
 30
0.0
 10
4172.483325
 20
1977.332910
 30
0.0
 10
4184.620584
 20
2022.623996
 30
0.0
  0
LWPOLYLINE
  5
3e2
100
AcDbEntity
  8
Layer_1
 62
7
100
AcDbPolyline
 90
2
 70
0
 10
3943.312738
 20
1999.301373
 30
0.0
 10
4081.312913
 20
1962.101344
 30
0.0
  0
SPLINE
  5
3e3
100
AcDbEntity
  8
Layer_1
 62
7
100
AcDbSpline
 70
8
 71
3
 72
8
 73
4
 74
0
 40
0
 40
0
 40
0
 40
0
 40
1
 40
1
 40
1
 40
1
 10
4214.018613
 20
2132.426526
 30
0.0
 10
4226.155872
 20
2177.717604
 30
0.0
 10
4199.279390
 20
2224.272472
 30
0.0
 10
4153.988304
 20
2236.409731
 30
0.0
  0
LWPOLYLINE
  5
3e4
100
AcDbEntity
  8
Layer_1
 62
7
100
AcDbPolyline
 90
2
 70
0
 10
4185.113041
 20
2022.101414
 30
0.0
 10
4214.513083
 20
2131.901563
 30
0.0
  0
SPLINE
  5
3e5
100
AcDbEntity
  8
Layer_1
 62
7
100
AcDbSpline
 70
8
 71
3
 72
8
 73
4
 74
0
 40
0
 40
0
 40
0
 40
0
 40
1
 40
1
 40
1
 40
1
 10
4016.020548
 20
2273.028398
 30
0.0
 10
4038.706080
 20
2520.364046
 30
0.0
 10
3950.253078
 20
2764.982626
 30
0.0
 10
3774.626282
 20
2940.609422
 30
0.0
  0
SPLINE
  5
3e6
100
AcDbEntity
  8
Layer_1
 62
7
100
AcDbSpline
 70
8
 71
3
 72
8
 73
4
 74
0
 40
0
 40
0
 40
0
 40
0
 40
1
 40
1
 40
1
 40
1
 10
3774.626282
 20
2940.609422
 30
0.0
 10
3598.999487
 20
3116.236218
 30
0.0
 10
3354.380906
 20
3204.689220
 30
0.0
 10
3107.045259
 20
3182.003687
 30
0.0
  0
LWPOLYLINE
  5
3e7
100
AcDbEntity
  8
Layer_1
 62
7
100
AcDbPolyline
 90
2
 70
0
 10
4154.513013
 20
2235.701804
 30
0.0
 10
4016.512838
 20
2272.901607
 30
0.0
  0
LWPOLYLINE
  5
3e8
100
AcDbEntity
  8
Layer_1
 62
7
100
AcDbPolyline
 90
3
 70
0
 10
3061.911582
 20
2709.702286
 30
0.0
 10
3108.711645
 20
2722.302251
 30
0.0
 10
3123.711664
 20
2667.702308
 30
0.0
  0
LWPOLYLINE
  5
3e9
100
AcDbEntity
  8
Layer_1
 62
7
100
AcDbPolyline
 90
3
 70
0
 10
2617.311008
 20
1816.901132
 30
0.0
 10
2651.511055
 20
1782.701113
 30
0.0
 10
2611.310987
 20
1742.501045
 30
0.0
  0
LWPOLYLINE
  5
3ea
100
AcDbEntity
  8
Layer_1
 62
7
100
AcDbPolyline
 90
3
 70
0
 10
3017.511524
 20
2874.102492
 30
0.0
 10
3003.111508
 20
2928.702719
 30
0.0
 10
3049.911568
 20
2941.302684
 30
0.0
  0
LWPOLYLINE
  5
3eb
100
AcDbEntity
  8
Layer_1
 62
7
100
AcDbPolyline
 90
3
 70
0
 10
3094.311625
 20
2776.902478
 30
0.0
 10
3046.911563
 20
2764.302513
 30
0.0
 10
3032.511543
 20
2819.502549
 30
0.0
  0
LWPOLYLINE
  5
3ec
100
AcDbEntity
  8
Layer_1
 62
7
100
AcDbPolyline
 90
3
 70
0
 10
2944.311431
 20
3147.702868
 30
0.0
 10
2991.111491
 20
3160.302833
 30
0.0
 10
3006.111510
 20
3105.702889
 30
0.0
  0
LWPOLYLINE
  5
3ed
100
AcDbEntity
  8
Layer_1
 62
7
100
AcDbPolyline
 90
3
 70
0
 10
3556.912231
 20
2274.101792
 30
0.0
 10
3544.312209
 20
2227.301667
 30
0.0
 10
3489.712153
 20
2241.701599
 30
0.0
  0
SPLINE
  5
3ee
100
AcDbEntity
  8
Layer_1
 62
7
100
AcDbSpline
 70
8
 71
3
 72
8
 73
4
 74
0
 40
0
 40
0
 40
0
 40
0
 40
1
 40
1
 40
1
 40
1
 10
2772.138047
 20
1737.696333
 30
0.0
 10
2948.900862
 20
1618.850398
 30
0.0
 10
3168.432616
 20
1582.279355
 30
0.0
 10
3374.176653
 20
1637.404836
 30
0.0
  0
SPLINE
  5
3ef
100
AcDbEntity
  8
Layer_1
 62
7
100
AcDbSpline
 70
8
 71
3
 72
8
 73
4
 74
0
 40
0
 40
0
 40
0
 40
0
 40
1
 40
1
 40
1
 40
1
 10
3374.176653
 20
1637.404836
 30
0.0
 10
3579.920787
 20
1692.530244
 30
0.0
 10
3751.759902
 20
1833.962052
 30
0.0
 10
3845.424099
 20
2025.264090
 30
0.0
  0
LWPOLYLINE
  5
3f0
100
AcDbEntity
  8
Layer_1
 62
7
100
AcDbPolyline
 90
3
 70
0
 10
2536.910900
 20
1737.101032
 30
0.0
 10
2571.110947
 20
1702.301005
 30
0.0
 10
2531.510887
 20
1662.100937
 30
0.0
  0
SPLINE
  5
3f1
100
AcDbEntity
  8
Layer_1
 62
7
100
AcDbSpline
 70
8
 71
3
 72
8
 73
4
 74
0
 40
0
 40
0
 40
0
 40
0
 40
1
 40
1
 40
1
 40
1
 10
3372.788485
 20
2151.807131
 30
0.0
 10
3350.580867
 20
2157.758407
 30
0.0
 10
3326.909099
 20
2154.448577
 30
0.0
 10
3307.185469
 20
2142.634400
 30
0.0
  0
LWPOLYLINE
  5
3f2
100
AcDbEntity
  8
Layer_1
 62
7
100
AcDbPolyline
 90
2
 70
0
 10
3373.311992
 20
2151.701593
 30
0.0
 10
3845.512603
 20
2025.101424
 30
0.0
  0
LWPOLYLINE
  5
3f3
100
AcDbEntity
  8
Layer_1
 62
7
100
AcDbPolyline
 90
3
 70
0
 10
3020.511529
 20
3051.102663
 30
0.0
 10
3035.511548
 20
2996.502720
 30
0.0
 10
2988.111486
 20
2983.902755
 30
0.0
  0
LWPOLYLINE
  5
3f4
100
AcDbEntity
  8
Layer_1
 62
7
100
AcDbPolyline
 90
3
 70
0
 10
2771.511195
 20
1902.701253
 30
0.0
 10
2737.311148
 20
1937.501308
 30
0.0
 10
2777.511216
 20
1977.701348
 30
0.0
  0
LWPOLYLINE
  5
3f5
100
AcDbEntity
  8
Layer_1
 62
7
100
AcDbPolyline
 90
3
 70
0
 10
2932.311414
 20
2063.501469
 30
0.0
 10
2897.511367
 20
2097.701516
 30
0.0
 10
2937.711421
 20
2137.901556
 30
0.0
  0
LWPOLYLINE
  5
3f6
100
AcDbEntity
  8
Layer_1
 62
7
100
AcDbPolyline
 90
3
 70
0
 10
2929.911411
 20
3202.902904
 30
0.0
 10
2914.911392
 20
3257.503130
 30
0.0
 10
2962.311452
 20
3270.103095
 30
0.0
  0
LWPOLYLINE
  5
3f7
100
AcDbEntity
  8
Layer_1
 62
7
100
AcDbPolyline
 90
3
 70
0
 10
3598.912294
 20
2212.301671
 30
0.0
 10
3611.512288
 20
2259.701832
 30
0.0
 10
3666.112373
 20
2244.701779
 30
0.0
  0
LWPOLYLINE
  5
3f8
100
AcDbEntity
  8
Layer_1
 62
7
100
AcDbPolyline
 90
3
 70
0
 10
2731.911163
 20
1862.501213
 30
0.0
 10
2691.711095
 20
1822.901153
 30
0.0
 10
2656.911040
 20
1857.101200
 30
0.0
  0
LWPOLYLINE
  5
3f9
100
AcDbEntity
  8
Layer_1
 62
7
100
AcDbPolyline
 90
3
 70
0
 10
3763.312500
 20
2168.501613
 30
0.0
 10
3708.712415
 20
2183.501637
 30
0.0
 10
3721.312437
 20
2230.301678
 30
0.0
  0
SPLINE
  5
3fa
100
AcDbEntity
  8
Layer_1
 62
7
100
AcDbSpline
 70
8
 71
3
 72
8
 73
4
 74
0
 40
0
 40
0
 40
0
 40
0
 40
1
 40
1
 40
1
 40
1
 10
2859.280950
 20
3011.407239
 30
0.0
 10
2667.978912
 20
2917.743042
 30
0.0
 10
2526.547105
 20
2745.903927
 30
0.0
 10
2471.421696
 20
2540.159792
 30
0.0
  0
SPLINE
  5
3fb
100
AcDbEntity
  8
Layer_1
 62
7
100
AcDbSpline
 70
8
 71
3
 72
8
 73
4
 74
0
 40
0
 40
0
 40
0
 40
0
 40
1
 40
1
 40
1
 40
1
 10
2471.421696
 20
2540.159792
 30
0.0
 10
2416.296215
 20
2334.415756
 30
0.0
 10
2452.867258
 20
2114.884001
 30
0.0
 10
2571.713194
 20
1938.121187
 30
0.0
  0
LWPOLYLINE
  5
3fc
100
AcDbEntity
  8
Layer_1
 62
7
100
AcDbPolyline
 90
2
 70
0
 10
2859.711319
 20
3011.502773
 30
0.0
 10
2996.511498
 20
2500.902014
 30
0.0
  0
SPLINE
  5
3fd
100
AcDbEntity
  8
Layer_1
 62
7
100
AcDbSpline
 70
8
 71
3
 72
8
 73
4
 74
0
 40
0
 40
0
 40
0
 40
0
 40
1
 40
1
 40
1
 40
1
 10
3918.798258
 20
2299.117680
 30
0.0
 10
3933.326039
 20
2511.610362
 30
0.0
 10
3855.228155
 20
2719.999799
 30
0.0
 10
3704.622407
 20
2870.605547
 30
0.0
  0
SPLINE
  5
3fe
100
AcDbEntity
  8
Layer_1
 62
7
100
AcDbSpline
 70
8
 71
3
 72
8
 73
4
 74
0
 40
0
 40
0
 40
0
 40
0
 40
1
 40
1
 40
1
 40
1
 10
3704.622407
 20
2870.605547
 30
0.0
 10
3554.016659
 20
3021.211294
 30
0.0
 10
3345.627223
 20
3099.309179
 30
0.0
 10
3133.134541
 20
3084.781398
 30
0.0
  0
LWPOLYLINE
  5
3ff
100
AcDbEntity
  8
Layer_1
 62
7
100
AcDbPolyline
 90
3
 70
0
 10
2817.711256
 20
2017.301408
 30
0.0
 10
2857.311316
 20
2057.501448
 30
0.0
 10
2892.111360
 20
2023.301401
 30
0.0
  0
SPLINE
  5
400
100
AcDbEntity
  8
Layer_1
 62
7
100
AcDbSpline
 70
8
 71
3
 72
8
 73
4
 74
0
 40
0
 40
0
 40
0
 40
0
 40
1
 40
1
 40
1
 40
1
 10
3259.805305
 20
2612.412913
 30
0.0
 10
3265.755851
 20
2590.208019
 30
0.0
 10
3280.456495
 20
2571.365292
 30
0.0
 10
3300.546856
 20
2560.191948
 30
0.0
  0
LWPOLYLINE
  5
401
100
AcDbEntity
  8
Layer_1
 62
7
100
AcDbPolyline
 90
2
 70
0
 10
3259.911841
 20
2612.502272
 30
0.0
 10
3133.311676
 20
3084.702759
 30
0.0
  0
LWPOLYLINE
  5
402
100
AcDbEntity
  8
Layer_1
 62
7
100
AcDbPolyline
 90
3
 70
0
 10
3885.712671
 20
2186.501619
 30
0.0
 10
3872.512642
 20
2139.101571
 30
0.0
 10
3817.912585
 20
2154.101596
 30
0.0
  0
LWPOLYLINE
  5
403
100
AcDbEntity
  8
Layer_1
 62
7
100
AcDbPolyline
 90
3
 70
0
 10
3927.712706
 20
2124.701554
 30
0.0
 10
3940.312728
 20
2171.501595
 30
0.0
 10
3994.912813
 20
2157.101578
 30
0.0
  0
LWPOLYLINE
  5
404
100
AcDbEntity
  8
Layer_1
 62
7
100
AcDbPolyline
 90
3
 70
0
 10
4104.712934
 20
2127.701537
 30
0.0
 10
4092.112940
 20
2080.301489
 30
0.0
 10
4036.912847
 20
2095.301513
 30
0.0
  0
SPLINE
  5
405
100
AcDbEntity
  8
Layer_1
 62
7
100
AcDbSpline
 70
8
 71
3
 72
8
 73
4
 74
0
 40
0
 40
0
 40
0
 40
0
 40
1
 40
1
 40
1
 40
1
 10
2399.777195
 20
1766.235008
 30
0.0
 10
2366.621539
 20
1733.079353
 30
0.0
 10
2366.621539
 20
1679.323411
 30
0.0
 10
2399.777195
 20
1646.167756
 30
0.0
  0
LWPOLYLINE
  5
406
100
AcDbEntity
  8
Layer_1
 62
7
100
AcDbPolyline
 90
2
 70
0
 10
2400.110712
 20
1645.300918
 30
0.0
 10
2479.910813
 20
1565.500818
 30
0.0
  0
SPLINE
  5
407
100
AcDbEntity
  8
Layer_1
 62
7
100
AcDbSpline
 70
8
 71
3
 72
8
 73
4
 74
0
 40
0
 40
0
 40
0
 40
0
 40
1
 40
1
 40
1
 40
1
 10
2833.266921
 20
3108.649669
 30
0.0
 10
2607.709156
 20
3004.629408
 30
0.0
 10
2440.077877
 20
2805.706736
 30
0.0
 10
2375.794171
 20
2565.781525
 30
0.0
  0
SPLINE
  5
408
100
AcDbEntity
  8
Layer_1
 62
7
100
AcDbSpline
 70
8
 71
3
 72
8
 73
4
 74
0
 40
0
 40
0
 40
0
 40
0
 40
1
 40
1
 40
1
 40
1
 10
2375.794171
 20
2565.781525
 30
0.0
 10
2311.510499
 20
2325.856263
 30
0.0
 10
2357.230310
 20
2069.769970
 30
0.0
 10
2500.565391
 20
1866.911484
 30
0.0
  0
LWPOLYLINE
  5
409
100
AcDbEntity
  8
Layer_1
 62
7
100
AcDbPolyline
 90
2
 70
0
 10
2500.910858
 20
1866.701211
 30
0.0
 10
2400.110712
 20
1765.901065
 30
0.0
  0
SPLINE
  5
40a
100
AcDbEntity
  8
Layer_1
 62
7
100
AcDbSpline
 70
8
 71
3
 72
8
 73
4
 74
0
 40
0
 40
0
 40
0
 40
0
 40
1
 40
1
 40
1
 40
1
 10
2856.634819
 20
3351.213256
 30
0.0
 10
2811.343733
 20
3339.075997
 30
0.0
 10
2784.467251
 20
3292.521129
 30
0.0
 10
2796.604510
 20
3247.230051
 30
0.0
  0
LWPOLYLINE
  5
40b
100
AcDbEntity
  8
Layer_1
 62
7
100
AcDbPolyline
 90
2
 70
0
 10
2796.711239
 20
3246.702877
 30
0.0
 10
2833.311288
 20
3108.702787
 30
0.0
  0
SPLINE
  5
40c
100
AcDbEntity
  8
Layer_1
 62
7
100
AcDbSpline
 70
8
 71
3
 72
8
 73
4
 74
0
 40
0
 40
0
 40
0
 40
0
 40
1
 40
1
 40
1
 40
1
 10
3069.818193
 20
3320.578142
 30
0.0
 10
3057.680934
 20
3365.869228
 30
0.0
 10
3011.126066
 20
3392.745709
 30
0.0
 10
2965.834988
 20
3380.608450
 30
0.0
  0
LWPOLYLINE
  5
40d
100
AcDbEntity
  8
Layer_1
 62
7
100
AcDbPolyline
 90
2
 70
0
 10
2966.511458
 20
3380.503167
 30
0.0
 10
2856.711309
 20
3351.103154
 30
0.0
  0
LWPOLYLINE
  5
40e
100
AcDbEntity
  8
Layer_1
 62
7
100
AcDbPolyline
 90
2
 70
0
 10
3107.511643
 20
3182.502866
 30
0.0
 10
3070.311594
 20
3319.903146
 30
0.0
  0
SPLINE
  5
40f
100
AcDbEntity
  8
Layer_1
 62
7
100
AcDbSpline
 70
8
 71
3
 72
8
 73
4
 74
0
 40
0
 40
0
 40
0
 40
0
 40
1
 40
1
 40
1
 40
1
 10
4213.912395
 20
1373.199470
 30
0.0
 10
4213.912395
 20
1357.459297
 30
0.0
 10
4226.672322
 20
1344.699370
 30
0.0
 10
4242.412495
 20
1344.699370
 30
0.0
  0
SPLINE
  5
410
100
AcDbEntity
  8
Layer_1
 62
7
100
AcDbSpline
 70
8
 71
3
 72
8
 73
4
 74
0
 40
0
 40
0
 40
0
 40
0
 40
1
 40
1
 40
1
 40
1
 10
4242.412495
 20
1344.699370
 30
0.0
 10
4258.152669
 20
1344.699370
 30
0.0
 10
4270.912596
 20
1357.459297
 30
0.0
 10
4270.912596
 20
1373.199470
 30
0.0
  0
SPLINE
  5
411
100
AcDbEntity
  8
Layer_1
 62
7
100
AcDbSpline
 70
8
 71
3
 72
8
 73
4
 74
0
 40
0
 40
0
 40
0
 40
0
 40
1
 40
1
 40
1
 40
1
 10
4270.912596
 20
1373.199470
 30
0.0
 10
4270.912596
 20
1388.939644
 30
0.0
 10
4258.152669
 20
1401.699571
 30
0.0
 10
4242.412495
 20
1401.699571
 30
0.0
  0
SPLINE
  5
412
100
AcDbEntity
  8
Layer_1
 62
7
100
AcDbSpline
 70
8
 71
3
 72
8
 73
4
 74
0
 40
0
 40
0
 40
0
 40
0
 40
1
 40
1
 40
1
 40
1
 10
4242.412495
 20
1401.699571
 30
0.0
 10
4226.672322
 20
1401.699571
 30
0.0
 10
4213.912395
 20
1388.939644
 30
0.0
 10
4213.912395
 20
1373.199470
 30
0.0
  0
SPLINE
  5
413
100
AcDbEntity
  8
Layer_1
 62
7
100
AcDbSpline
 70
8
 71
3
 72
8
 73
4
 74
0
 40
0
 40
0
 40
0
 40
0
 40
1
 40
1
 40
1
 40
1
 10
4602.714152
 20
237.399783
 30
0.0
 10
4602.714152
 20
221.659610
 30
0.0
 10
4615.474079
 20
208.899683
 30
0.0
 10
4631.214252
 20
208.899683
 30
0.0
  0
SPLINE
  5
414
100
AcDbEntity
  8
Layer_1
 62
7
100
AcDbSpline
 70
8
 71
3
 72
8
 73
4
 74
0
 40
0
 40
0
 40
0
 40
0
 40
1
 40
1
 40
1
 40
1
 10
4631.214252
 20
208.899683
 30
0.0
 10
4646.954426
 20
208.899683
 30
0.0
 10
4659.714353
 20
221.659610
 30
0.0
 10
4659.714353
 20
237.399783
 30
0.0
  0
SPLINE
  5
415
100
AcDbEntity
  8
Layer_1
 62
7
100
AcDbSpline
 70
8
 71
3
 72
8
 73
4
 74
0
 40
0
 40
0
 40
0
 40
0
 40
1
 40
1
 40
1
 40
1
 10
4659.714353
 20
237.399783
 30
0.0
 10
4659.714353
 20
253.139957
 30
0.0
 10
4646.954426
 20
265.899884
 30
0.0
 10
4631.214252
 20
265.899884
 30
0.0
  0
SPLINE
  5
416
100
AcDbEntity
  8
Layer_1
 62
7
100
AcDbSpline
 70
8
 71
3
 72
8
 73
4
 74
0
 40
0
 40
0
 40
0
 40
0
 40
1
 40
1
 40
1
 40
1
 10
4631.214252
 20
265.899884
 30
0.0
 10
4615.474079
 20
265.899884
 30
0.0
 10
4602.714152
 20
253.139957
 30
0.0
 10
4602.714152
 20
237.399783
 30
0.0
  0
LWPOLYLINE
  5
417
100
AcDbEntity
  8
Layer_1
 62
7
100
AcDbPolyline
 90
339
 70
1
 10
4359.713266
 20
70.898855
 30
0.0
 10
4359.713266
 20
94.898883
 30
0.0
 10
4416.113346
 20
94.898883
 30
0.0
 10
4416.113346
 20
70.898855
 30
0.0
 10
4473.113434
 20
70.898855
 30
0.0
 10
4473.113434
 20
94.898883
 30
0.0
 10
4529.513514
 20
94.898883
 30
0.0
 10
4529.513514
 20
70.898855
 30
0.0
 10
4586.513573
 20
70.898855
 30
0.0
 10
4586.513573
 20
94.898883
 30
0.0
 10
4642.913653
 20
94.898883
 30
0.0
 10
4642.913653
 20
70.898855
 30
0.0
 10
4699.913712
 20
70.898855
 30
0.0
 10
4699.913712
 20
94.898883
 30
0.0
 10
4756.313792
 20
94.898883
 30
0.0
 10
4759.313803
 20
463.899363
 30
0.0
 10
4762.913821
 20
492.099417
 30
0.0
 10
4765.913804
 20
520.299443
 30
0.0
 10
4768.913814
 20
548.499497
 30
0.0
 10
4771.913825
 20
575.499508
 30
0.0
 10
4774.313827
 20
602.499546
 30
0.0
 10
4776.113822
 20
628.899577
 30
0.0
 10
4777.913818
 20
655.299636
 30
0.0
 10
4779.713841
 20
681.099659
 30
0.0
 10
4780.913828
 20
706.299703
 30
0.0
 10
4782.113844
 20
730.899710
 30
0.0
 10
4782.713823
 20
755.499746
 30
0.0
 10
4783.313831
 20
779.499774
 30
0.0
 10
4783.313831
 20
803.499830
 30
0.0
 10
4783.313831
 20
826.299842
 30
0.0
 10
4782.713823
 20
849.099883
 30
0.0
 10
4782.113844
 20
871.299916
 30
0.0
 10
4780.913828
 20
893.499949
 30
0.0
 10
4779.713841
 20
915.099974
 30
0.0
 10
4777.913818
 20
936.099992
 30
0.0
 10
4776.113822
 20
956.500030
 30
0.0
 10
4773.713820
 20
976.900039
 30
0.0
 10
4771.313817
 20
996.700069
 30
0.0
 10
4768.913814
 20
1015.900092
 30
0.0
 10
4765.913804
 20
1035.100114
 30
0.0
 10
4762.913821
 20
1053.700157
 30
0.0
 10
4759.313803
 20
1071.700164
 30
0.0
 10
4755.113805
 20
1089.700199
 30
0.0
 10
4751.513787
 20
1107.100226
 30
0.0
 10
4746.713781
 20
1123.900246
 30
0.0
 10
4742.513783
 20
1140.100258
 30
0.0
 10
4737.713778
 20
1156.300270
 30
0.0
 10
4732.313764
 20
1171.900302
 30
0.0
 10
4726.913751
 20
1186.900327
 30
0.0
 10
4721.513766
 20
1201.900351
 30
0.0
 10
4715.513745
 20
1216.300368
 30
0.0
 10
4708.913744
 20
1230.100377
 30
0.0
 10
4702.913723
 20
1243.900386
 30
0.0
 10
4696.313722
 20
1257.100415
 30
0.0
 10
4689.113714
 20
1269.700437
 30
0.0
 10
4681.913706
 20
1282.300431
 30
0.0
 10
4674.713697
 20
1294.300473
 30
0.0
 10
4666.913681
 20
1305.700479
 30
0.0
 10
4659.113665
 20
1317.100485
 30
0.0
 10
4651.313649
 20
1327.300504
 30
0.0
 10
4642.913653
 20
1338.100531
 30
0.0
 10
4634.513629
 20
1347.700542
 30
0.0
 10
4626.113633
 20
1357.300554
 30
0.0
 10
4617.113630
 20
1366.900565
 30
0.0
 10
4608.113598
 20
1375.300560
 30
0.0
 10
4599.113595
 20
1383.700584
 30
0.0
 10
4589.513584
 20
1392.100580
 30
0.0
 10
4579.913573
 20
1399.900596
 30
0.0
 10
4570.313561
 20
1407.100605
 30
0.0
 10
4560.713550
 20
1413.700605
 30
0.0
 10
4550.513531
 20
1420.300634
 30
0.0
 10
4540.313512
 20
1426.900635
 30
0.0
 10
4530.113493
 20
1432.300648
 30
0.0
 10
4519.913503
 20
1438.300641
 30
0.0
 10
4509.713484
 20
1443.100646
 30
0.0
 10
4498.913457
 20
1447.900652
 30
0.0
 10
4488.113458
 20
1452.700658
 30
0.0
 10
4477.913439
 20
1456.900684
 30
0.0
 10
4467.113413
 20
1460.500674
 30
0.0
 10
4456.313414
 20
1464.100692
 30
0.0
 10
4445.513387
 20
1467.700682
 30
0.0
 10
4434.713389
 20
1470.100685
 30
0.0
 10
4423.913362
 20
1473.100696
 30
0.0
 10
4413.113364
 20
1475.500698
 30
0.0
 10
4402.313337
 20
1477.300693
 30
0.0
 10
4391.513310
 20
1479.100688
 30
0.0
 10
4380.713312
 20
1480.900712
 30
0.0
 10
4369.913285
 20
1482.100699
 30
0.0
 10
4359.713266
 20
1482.700707
 30
0.0
 10
4348.913268
 20
1483.300715
 30
0.0
 10
4338.713249
 20
1483.900722
 30
0.0
 10
4328.513230
 20
1484.500702
 30
0.0
 10
4318.313239
 20
1483.900722
 30
0.0
 10
4308.113220
 20
1483.900722
 30
0.0
 10
4298.513209
 20
1483.300715
 30
0.0
 10
4288.913198
 20
1482.700707
 30
0.0
 10
4279.313187
 20
1482.100699
 30
0.0
 10
4269.713175
 20
1480.900712
 30
0.0
 10
4260.713144
 20
1479.700696
 30
0.0
 10
4251.713140
 20
1477.900701
 30
0.0
 10
4243.313116
 20
1476.100706
 30
0.0
 10
4234.913121
 20
1474.300683
 30
0.0
 10
4226.513097
 20
1472.500688
 30
0.0
 10
4218.713109
 20
1470.100685
 30
0.0
 10
4210.913093
 20
1467.700682
 30
0.0
 10
4203.713084
 20
1465.300679
 30
0.0
 10
4196.513076
 20
1462.900677
 30
0.0
 10
4189.913047
 20
1459.900666
 30
0.0
 10
4183.313046
 20
1456.900684
 30
0.0
 10
4177.313054
 20
1453.300665
 30
0.0
 10
4171.313032
 20
1450.300655
 30
0.0
 10
4165.913019
 20
1446.700665
 30
0.0
 10
4160.513006
 20
1443.100646
 30
0.0
 10
4155.713000
 20
1439.500656
 30
0.0
 10
4150.912994
 20
1435.300659
 30
0.0
 10
4146.712997
 20
1431.100632
 30
0.0
 10
4143.113007
 20
1426.900635
 30
0.0
 10
4139.512988
 20
1422.700637
 30
0.0
 10
4135.912998
 20
1417.900631
 30
0.0
 10
4132.912988
 20
1413.700605
 30
0.0
 10
4130.512985
 20
1408.900600
 30
0.0
 10
4128.712990
 20
1404.100594
 30
0.0
 10
4126.912966
 20
1398.700609
 30
0.0
 10
4125.112971
 20
1393.900603
 30
0.0
 10
4123.912984
 20
1388.500590
 30
0.0
 10
4123.312976
 20
1383.100577
 30
0.0
 10
4123.312976
 20
1377.700563
 30
0.0
 10
4122.712969
 20
1372.300550
 30
0.0
 10
4123.312976
 20
1366.900565
 30
0.0
 10
4123.912984
 20
1361.500551
 30
0.0
 10
4125.112971
 20
1356.100538
 30
0.0
 10
4126.312987
 20
1350.700525
 30
0.0
 10
4128.112982
 20
1345.300540
 30
0.0
 10
4129.912977
 20
1340.500534
 30
0.0
 10
4132.312980
 20
1335.100521
 30
0.0
 10
4135.312990
 20
1329.700507
 30
0.0
 10
4138.313001
 20
1324.900502
 30
0.0
 10
4141.312983
 20
1320.100496
 30
0.0
 10
4144.913002
 20
1315.900498
 30
0.0
 10
4149.112999
 20
1311.100493
 30
0.0
 10
4153.312997
 20
1307.500474
 30
0.0
 10
4158.113003
 20
1303.300476
 30
0.0
 10
4162.913037
 20
1299.700458
 30
0.0
 10
4168.313022
 20
1296.100468
 30
0.0
 10
4173.713035
 20
1293.100457
 30
0.0
 10
4179.713056
 20
1290.100447
 30
0.0
 10
4185.713049
 20
1287.700444
 30
0.0
 10
4192.313050
 20
1285.300441
 30
0.0
 10
4198.913079
 20
1283.500446
 30
0.0
 10
4205.513079
 20
1281.700451
 30
0.0
 10
4212.713088
 20
1280.500436
 30
0.0
 10
4219.913096
 20
1279.300448
 30
0.0
 10
4227.113105
 20
1278.100433
 30
0.0
 10
4234.913121
 20
1276.900446
 30
0.0
 10
4242.713137
 20
1276.300438
 30
0.0
 10
4250.513125
 20
1275.700430
 30
0.0
 10
4266.113157
 20
1275.100422
 30
0.0
 10
4282.313169
 20
1273.900435
 30
0.0
 10
4299.113188
 20
1272.700419
 30
0.0
 10
4307.513212
 20
1272.100440
 30
0.0
 10
4315.313229
 20
1271.500432
 30
0.0
 10
4323.713224
 20
1270.300417
 30
0.0
 10
4332.113248
 20
1269.100429
 30
0.0
 10
4339.913264
 20
1267.300434
 30
0.0
 10
4347.713252
 20
1265.500411
 30
0.0
 10
4355.513268
 20
1263.700416
 30
0.0
 10
4363.313285
 20
1260.700406
 30
0.0
 10
4371.113301
 20
1258.300403
 30
0.0
 10
4378.313309
 20
1254.700413
 30
0.0
 10
4386.113325
 20
1251.100394
 30
0.0
 10
4392.713326
 20
1246.300389
 30
0.0
 10
4399.913334
 20
1241.500383
 30
0.0
 10
4406.513335
 20
1236.700378
 30
0.0
 10
4413.113364
 20
1230.700385
 30
0.0
 10
4419.713365
 20
1224.100356
 30
0.0
 10
4425.713357
 20
1217.500355
 30
0.0
 10
4431.713378
 20
1209.700339
 30
0.0
 10
4437.113392
 20
1201.900351
 30
0.0
 10
4443.113385
 20
1193.500327
 30
0.0
 10
4447.913390
 20
1184.500324
 30
0.0
 10
4453.313404
 20
1174.900313
 30
0.0
 10
4458.113409
 20
1165.300301
 30
0.0
 10
4462.313407
 20
1154.500275
 30
0.0
 10
4467.113413
 20
1143.700276
 30
0.0
 10
4470.713431
 20
1132.300242
 30
0.0
 10
4474.913429
 20
1120.300228
 30
0.0
 10
4478.513447
 20
1107.700206
 30
0.0
 10
4482.113437
 20
1095.100212
 30
0.0
 10
4485.113448
 20
1081.900183
 30
0.0
 10
4488.113458
 20
1068.700153
 30
0.0
 10
4491.113441
 20
1054.900144
 30
0.0
 10
4494.113451
 20
1040.500128
 30
0.0
 10
4496.513454
 20
1026.100111
 30
0.0
 10
4498.913457
 20
1011.700094
 30
0.0
 10
4500.713452
 20
996.700069
 30
0.0
 10
4502.513475
 20
981.700045
 30
0.0
 10
4504.313470
 20
966.100041
 30
0.0
 10
4506.113465
 20
951.100016
 30
0.0
 10
4507.913460
 20
935.499984
 30
0.0
 10
4510.313463
 20
904.299948
 30
0.0
 10
4512.713466
 20
873.099911
 30
0.0
 10
4514.513489
 20
842.499883
 30
0.0
 10
4515.113497
 20
826.899850
 30
0.0
 10
4515.713476
 20
811.899826
 30
0.0
 10
4516.313484
 20
796.899801
 30
0.0
 10
4516.313484
 20
781.899776
 30
0.0
 10
4516.913492
 20
767.499760
 30
0.0
 10
4517.513500
 20
752.499763
 30
0.0
 10
4517.513500
 20
738.699726
 30
0.0
 10
4518.113479
 20
724.899717
 30
0.0
 10
4518.113479
 20
711.099708
 30
0.0
 10
4518.113479
 20
697.899679
 30
0.0
 10
4518.113479
 20
684.699677
 30
0.0
 10
4518.113479
 20
672.099656
 30
0.0
 10
4518.113479
 20
659.499634
 30
0.0
 10
4518.113479
 20
647.499620
 30
0.0
 10
4518.113479
 20
635.499606
 30
0.0
 10
4518.113479
 20
624.099571
 30
0.0
 10
4517.513500
 20
613.299573
 30
0.0
 10
4517.513500
 20
602.499546
 30
0.0
 10
4517.513500
 20
592.299555
 30
0.0
 10
4516.913492
 20
582.099536
 30
0.0
 10
4516.313484
 20
572.499525
 30
0.0
 10
4515.713476
 20
562.899514
 30
0.0
 10
4515.713476
 20
553.899482
 30
0.0
 10
4515.113497
 20
545.499487
 30
0.0
 10
4513.913481
 20
536.499483
 30
0.0
 10
4513.313474
 20
528.699467
 30
0.0
 10
4512.713466
 20
520.899451
 30
0.0
 10
4511.513479
 20
513.099435
 30
0.0
 10
4510.313463
 20
505.899426
 30
0.0
 10
4509.113476
 20
498.699418
 30
0.0
 10
4507.913460
 20
491.499410
 30
0.0
 10
4506.713473
 20
484.899409
 30
0.0
 10
4505.513457
 20
478.299380
 30
0.0
 10
4503.713462
 20
472.299387
 30
0.0
 10
4501.913467
 20
465.699387
 30
0.0
 10
4500.113472
 20
459.699365
 30
0.0
 10
4497.713470
 20
454.299352
 30
0.0
 10
4495.913446
 20
448.299359
 30
0.0
 10
4493.513443
 20
442.899346
 30
0.0
 10
4491.113441
 20
437.499332
 30
0.0
 10
4488.113458
 20
432.099319
 30
0.0
 10
4485.113448
 20
426.699334
 30
0.0
 10
4482.113437
 20
421.299321
 30
0.0
 10
4479.113427
 20
416.499315
 30
0.0
 10
4476.113444
 20
411.099302
 30
0.0
 10
4472.513426
 20
406.299296
 30
0.0
 10
4468.913436
 20
401.499290
 30
0.0
 10
4464.713410
 20
396.699285
 30
0.0
 10
4460.513412
 20
391.899279
 30
0.0
 10
4456.313414
 20
387.099274
 30
0.0
 10
4452.113388
 20
382.299268
 30
0.0
 10
4447.313383
 20
377.499263
 30
0.0
 10
4442.513377
 20
372.699257
 30
0.0
 10
4437.113392
 20
367.899251
 30
0.0
 10
4432.313386
 20
363.099246
 30
0.0
 10
4426.913373
 20
358.299240
 30
0.0
 10
4420.913352
 20
354.099242
 30
0.0
 10
4415.513367
 20
349.299237
 30
0.0
 10
4409.513346
 20
344.499231
 30
0.0
 10
4402.913345
 20
340.299205
 30
0.0
 10
4396.913324
 20
335.499199
 30
0.0
 10
4390.313323
 20
330.699194
 30
0.0
 10
4383.713323
 20
326.499196
 30
0.0
 10
4376.513314
 20
321.699190
 30
0.0
 10
4365.113280
 20
320.499175
 30
0.0
 10
4353.713273
 20
319.299188
 30
0.0
 10
4342.313267
 20
318.099172
 30
0.0
 10
4331.513240
 20
316.299177
 30
0.0
 10
4320.713242
 20
315.099190
 30
0.0
 10
4310.513223
 20
313.299166
 30
0.0
 10
4299.713196
 20
311.499171
 30
0.0
 10
4290.113185
 20
309.699176
 30
0.0
 10
4279.913166
 20
307.899181
 30
0.0
 10
4270.313155
 20
305.499179
 30
0.0
 10
4260.713144
 20
303.699155
 30
0.0
 10
4251.713140
 20
301.299152
 30
0.0
 10
4242.713137
 20
298.899150
 30
0.0
 10
4233.713105
 20
296.499147
 30
0.0
 10
4225.313110
 20
293.499165
 30
0.0
 10
4216.913086
 20
291.099162
 30
0.0
 10
4209.113069
 20
288.099151
 30
0.0
 10
4201.313082
 20
285.099141
 30
0.0
 10
4193.513065
 20
282.099130
 30
0.0
 10
4186.313057
 20
279.099119
 30
0.0
 10
4179.113049
 20
275.499129
 30
0.0
 10
4172.513048
 20
272.499119
 30
0.0
 10
4165.913019
 20
268.899129
 30
0.0
 10
4159.313018
 20
265.299110
 30
0.0
 10
4153.312997
 20
261.699120
 30
0.0
 10
4147.313004
 20
257.499094
 30
0.0
 10
4141.912991
 20
253.899104
 30
0.0
 10
4136.512978
 20
249.699106
 30
0.0
 10
4131.112993
 20
245.499080
 30
0.0
 10
4126.312987
 20
241.299082
 30
0.0
 10
4121.512981
 20
237.099085
 30
0.0
 10
4117.312955
 20
232.899087
 30
0.0
 10
4113.112957
 20
228.699061
 30
0.0
 10
4109.512939
 20
223.899055
 30
0.0
 10
4105.912949
 20
219.099050
 30
0.0
 10
4102.312931
 20
214.899052
 30
0.0
 10
4099.312948
 20
210.099046
 30
0.0
 10
4096.312938
 20
205.299041
 30
0.0
 10
4093.312927
 20
200.499035
 30
0.0
 10
4090.912925
 20
195.099022
 30
0.0
 10
4088.512922
 20
190.299016
 30
0.0
 10
4086.712927
 20
185.499010
 30
0.0
 10
4084.912932
 20
180.699005
 30
0.0
 10
4083.112908
 20
175.898999
 30
0.0
 10
4081.312913
 20
170.498986
 30
0.0
 10
4080.112926
 20
165.698980
 30
0.0
 10
4078.912911
 20
160.898975
 30
0.0
 10
4077.712923
 20
156.098969
 30
0.0
 10
4077.112916
 20
151.298963
 30
0.0
 10
4076.512908
 20
146.498958
 30
0.0
 10
4075.912900
 20
141.698952
 30
0.0
 10
4075.312920
 20
137.498954
 30
0.0
 10
4074.712913
 20
132.698949
 30
0.0
 10
4074.712913
 20
128.498923
 30
0.0
 10
4074.112905
 20
124.298925
 30
0.0
 10
4074.112905
 20
120.098927
 30
0.0
 10
4074.112905
 20
116.498909
 30
0.0
 10
4074.112905
 20
112.898919
 30
0.0
 10
4074.712913
 20
109.298900
 30
0.0
 10
4074.712913
 20
105.698910
 30
0.0
 10
4074.712913
 20
102.698900
 30
0.0
 10
4075.312920
 20
100.298897
 30
0.0
 10
4075.312920
 20
97.298886
 30
0.0
 10
4075.912900
 20
94.898883
 30
0.0
 10
4075.912900
 20
70.898855
 30
0.0
 10
4132.912988
 20
70.898855
 30
0.0
 10
4132.912988
 20
94.898883
 30
0.0
 10
4189.313068
 20
94.898883
 30
0.0
 10
4189.313068
 20
70.898855
 30
0.0
 10
4246.313127
 20
70.898855
 30
0.0
 10
4246.313127
 20
94.898883
 30
0.0
 10
4302.713207
 20
94.898883
 30
0.0
 10
4302.713207
 20
70.898855
 30
0.0
  0
ENDSEC
  0
SECTION
  2
OBJECTS
  0
DICTIONARY
  5
C
330
0
100
AcDbDictionary
  3
ACAD_GROUP
350
D
  3
ACAD_MLINESTYLE
350
17
  0
DICTIONARY
  5
D
330
C
100
AcDbDictionary
  0
DICTIONARY
  5
1A
330
C
100
AcDbDictionary
  0
DICTIONARY
  5
17
330
C
100
AcDbDictionary
  3
STANDARD
350
18
  0
DICTIONARY
  5
19
330
C
100
AcDbDictionary
  0
ENDSEC
  0
EOF
